rock
 
|tablatures   |lyrics   |discussion forums   |more tabs @ XGuitar.com

Mxpx tabs

Kings of Hollywood bass tab

Artist: MxPx
Song: Kings of Hollywood
Album: Before Everything & After
Tabbed by: Rossimo (rossi_mon@hotmail.com)
This song will definitely help you with finger movement.  You can kind of pick your own beat if you want to pluck several times on a note during the verse or if you want to hold each note.  Itís a fun one!  MxPx rocks!

Note:  The last note (E:1) of the intro and verse and chorus leads into the next verse or chorus.

Intro                               |--------------2nd Half---------
G|-----------------------------------------------------------------|
D|-----------------------------------------------------------------|
A|----0-1-0--0-1-0--0-1-0-3-0-1-0--0--0-1-0--0-1-0--0--0-1-0-3-0-1-|
E|--1-------1------1--------------3--1------1------3--1------------|

------------|
G|----------|
D|----------|
A|-0---0----|
E|---3----1-|

Verse (2x)
G|-------------------------------------------------------------------|
D|-------------------------------------------------------------------|
A|---0-1-0--0-1-0--0-1-0--0-1-0-3-0-1-0-3-0-1-0--0-----111-333-1-0---|
E|-1-------1-------1-------1-------------------3---111-------------3-|

G|------|
D|------|
A|-0----|
E|---1--|

Chorus
G|-----------------------------------------------------------------|
D|-----------------------------------------------------------------|
A|------------------11111111111-0---------------111111-3(hold)-0---|
E|-111111111111-------------------111111111111-------------------1-|

Bridge
G|----------------------------------------------------------------------|
D|----------------------------------------------------------------------|
A|-555555-55555-3-111111-333333-555555555555-111111-333333-555555555555-|
E|----------------------------------------------------------------------|

G|-------------------------------------------------------------------------|
D|-------------------------------------------------------------------------|
A|-111111-333333-555555555555-111111-333333--------------------------------|
E|------------------------------------------0-h1-111-0-h1-11-h3-1-0-h1-111-|

G|---------|
D|---------|
A|-333-111-|
E|---------|

Order:
Intro; Intro 2nd half; Verse; Verse; Chorus; Verse; Verse; Chorus; Bridge; Intro 2nd Half; Verse; Chorus

Notes:
--Leave out last two notes of chorus when bridge comes in
--Donít play at the end during the repeat of "Liviní a dream", if you want to play, play the last part of the bridge on the E and A strings and end on E 1(F)
  development and support by
dmitry ivanov