rock
 
|tablatures   |lyrics   |discussion forums   |more tabs @ XGuitar.com

Mxpx tabs

Kings of Hollywood guitar tab

Main guitar


I was sick of not finding this anywhere so i made it.
It might not be great but it is the part.

b- bend up 1/2 step
p- pull off
h- hammer on
/- slide
.- palm mute
( )- second time



Intro
e|------------------------------------------------|
B|------------------------------------------------|
G|-------------------13b-------------------13b----|
D|----14p13-14--16------------14p13-14--16--------|
A|------------------------------------------------|
E|------------------------------------------------|

e|----------------------------------------------------------|
B|----------------------------------------------------------|
G|------------------13b-13----------------------13b-13------|
D|----14p13-14--16---------16---14p13-14--16-----------16(r)|   X2
A|----------------------------------------------------------|
E|----------------------------------------------------------|


Chorus
e|----------------------------------------------------------|
B|----------------------------------------------------------|
G|------------------13b-13----------------------13b-13------|
D|----14p13-14--16---------16---14p13-14--16-----------16r--|   
A|----------------------------------------------------------|
E|----------------------------------------------------------|
  development and support by
dmitry ivanov