rock
 
|tablatures   |lyrics   |discussion forums   |more tabs @ XGuitar.com

Mxpx tabs

Late Last Night bass tab

MxPx
Late Last Night

Riff 1
G-------------7h9------------7h9--------------7h9----------
D---------7h9------------7h9-------------7h9---------------
A-----7h9------------7h9------------7h9--------------------
E-7h9------------7h9------------7h9----------------77755-5-

Riff 2
G------------------------------------------------
D-----9-------------9-------------9--------------
A--------977----------977----------977-----------
E-77----------7-7-----------77-----------7775-55-

Verse
G------------------------------------------
D------------------------------------------
A------------------------------------------
E-777777777777755555552222222--------------

Chorus
G-------------------------------------
D-------------------------------------
A-------------------------5------7----
E-77-55-2----77-55--------------------
                   Drum     Drum
                   Roll     Roll

Outro
G-------------7h9------------7h9--------------7h9---------------
D---------7h9------------7h9-------------7h9--------------------
A-----7h9------------7h9------------7h9-------------------------
E-7h9------------7h9------------7h9----------------77755-5-7----

Order
Riff 1 x2    Verse x4
Riff 2 x2    Chorus x2
Verse x4     Riff 1 x1
Chorus x2    Outro x1
Riff 2 x2
  development and support by
dmitry ivanov