rock
 
|tablatures   |lyrics   |discussion forums   |more tabs @ XGuitar.com

Mxpx tabs

Let It Happen guitar tab

Let It Happen

|--------------------|
|--------------------|   this is the main riff
|-------4-6p4-4-4h6--|
|----4---------------|
|-2------------------|
|--------------------|

|-----------------|
|-----------------|       this the the chord progression throughout most of the song
|--4---6---9---6--|
|--4---6---9---6--|
|--2---4---7---4--|
|-----------------|

|------------------|
|------------------|      these are all the power chords used in th song its not too difficult to
|--3--4--6--9--13--|      put them in order
|--3--4--6--9--13--|
|--1--2--4--7--10--|
|------------------|

solo
|----------------------7--6-------------------------------|
|----------------------------7----7h9p7-------------------|
|----4h6p4------4-----------------------------------------|
|---------------------------------------------------------|
|---------------------------------------------------------|
|----------------------------------------\\\\\pickslide---|
  development and support by
dmitry ivanov