rock
 
|tablatures   |lyrics   |discussion forums   |more tabs @ XGuitar.com

Mxpx tabs

Letting Go bass tab

Song:  Letting Go
Band:  MxPx
Album: The Renaissance EP
By:BassD		   >=play a couple of time
	    	           ring=let the note sound
		           x=mute

Intro      /Verse x2
G|---------|------------------------|
D|---------|------------------------|
A|-5-5ring-|-5>----2>--------5>-----|
E|---------|----2>------3>------5>--|

Chorus
G|------------------------------------------------------------
D|------------------------------------------------x-x-4-x-x-5-
A|-5>------------------------------------5>-------------------
E|----5>--3-3--3-2-3--3-2-3--3-2-3--3-2-----5>-3>-------------

----------------------------------|
---------------------x-x-4-x-x-5--|
-5>--------5>---------------------|
----5>-3>-----5>-3>---------------|

Funny Bridge x2
G|--------------------|
D|--------------------|
A|-5--4-2--0-------0--|
E|-----------3-2-3----|

(Verse x2)
(Chorus)
(Funny bridge x2)
Then follow with this
G|-------------------------------------------------------|
D|-------------------------------------------------------|
A|-5-5--5-5-5--5-----------------------------2-2--2-0-0--|
E|---------------2-2--2-2-2--2-3-3--3-3-3--3-------------|

G|-------------------------------------------------|
D|-------------------------------------------------|
A|-5-5--5-5-5--5-----------------------------2--0--|
E|---------------2-2--2-2-2--2-3-3--3-3-3--3-------|

G|(x3)-----------|-----------------------|--------|
D|---------------|-----------------------|--------|
A|-5>-------2--0-|-5>--------x-x-2-x-x-0-|----0>--|
E|----2>-3>------|----2>-3>--------------|-3>-----|

(Chorus)

End with Funny bridge
G|---------------------------------------------|
D|---------------------------------------------|
A|-5-5-4-2-2-0-------0--5-5-4-2-2-0-------0-5--|
E|-------------3-2-3----------------3-2-3------|End

Old MxPx style!!
If you ever want to buy the new cd The Renaissance EP write me
and I will tell you somethings you should know about the cd.
rancid_ska@hotmail.com
  development and support by
dmitry ivanov