rock
 
|tablatures   |lyrics   |discussion forums   |more tabs @ XGuitar.com

Mxpx tabs

Life in General bass tab

BAND: MXPX
SONG: Life In General
CD: Life In General / Let It Happen
EMAIL: JAGNFL1112@aol.com

This is a cool song and very easy to play. I’m not sure about some parts, but I think its mostly right.  Shall we begin?

Intro
G|----------------------------------------------------------------|
D|----------------------------------------------------------------|
A|------3>--------------------------------------------------------|    (2x)
E|------------------5>--------3>--------1>------------------------|

G|----------------------------------------------------------------|
D|----------------------------------------------------------------|
A|----------------------------------------------------------------|
E|---11111111111111111--------------------------------------------|

Verse
G|----------------------------------------------------------------|
D|----------------------------------------------------------------|
A|-----33333------------------------------------------------------|    (2x)
E|-------------------55555------33333------11111------------------|

G|----------------------------------------------------------------|
D|----------------------------------------------------------------|
A|------33--------------------------------------------------------|    (2x)
E|------------------55--------33--------11------------------------|

Verse

Chorus
G|----------------------------------------------------------------|
D|----------------------------------------------------------------|
A|-----33333333---------------------------------------------------|    (2x)
E|-------------------5555555-----3333333-----1-13333--------------|

After Chorus
G|----------------------------------------------------------------|
D|----------------------------------------------------------------|
A|------33-33-----------------------------------------------------|    (2x)
E|------------------55--55------33-33-------11-11-----------------|

Verse

Chorus

Bridge
(Guitar plays first, then bass comes in)
G|----------------------------------------------------------------|
D|----------------------------------------------------------------|
A|----7667---7667---5445---5445---3223---3223---5445---5445-------|    (2x)
E|--5------5------3------3------1------1------3------3------------|

Ending (Don’t Know, Don’t Care....)
G|----------------------------------------------------------------|
D|----------------------------------------------------------------|
A|------33--------------------------------------------------------|    (2x)
E|------------------55-----333331133------------------------------|

That’s all of it. Pretty easy stuff. So anyway, if you will, rate it high if you like the way its tabbed, as in if its right - Jordan
  development and support by
dmitry ivanov