rock
 
|tablatures   |lyrics   |discussion forums   |more tabs @ XGuitar.com

Mxpx tabs

Lifetime Enlightenment guitar tab

MxPx,Lifetime Enlightment.
 Tabbed by Federico E..

Intro
 G       Bb      B       G#        D
| ------------------------------------------------------------------------|
| ------------------------------------------------------------------------|
| ------------------------------------------------------------------------|
| 5--5---8--8----11-11---10--------8------------------------------|
| 5--5---8--8----11-11---10--------8------------------------------|
| 3--3---6--6-----9--9-----8---------6------------------------------|
Then do the same thing except mute the down stroke of  B, G# and D.

Chorus

             G                       Bb  A  Bb  A
|-------------------------------------------------------|
|-------------------------------------------------------|
|-------------------------------------------------------|
|-5--5--5--5--5--5--5--5--8--7--8--7--------------------|
|-5--5--5--5--5--5--5--5--8--7--8--7--------------------|
|-3--3--3--3--3--3--3--3--6--5--6--5--------------------|

The \"Deep Purple - Smoke on the Water\" Solo
|----------------------------------------------------------------------------|
|----------------------------------------------------------------------------|
|----------------------------------------------------------------------------|
|2--5--7--2--5--8--7--2--5--7--5--2---x--x--x--x--x--x--x--x---5--x--x--x--x-|
|2--5--7--2--5--8--7--2--5--7--5--2---x--x--x--x--x--x--x--x---5--x--x--x--x-|
|0--3--5--0--3--6--5--0--3--5--3--0---x---x--x--x--x--x--x--x--3--x--x--x--x-|

:: Ultimate Guitar Archive ::
http://www.ultimate-guitar.com
  development and support by
dmitry ivanov