rock
 
|tablatures   |lyrics   |discussion forums   |more tabs @ XGuitar.com

Mxpx tabs

Lonesome Town bass tab

Song:  Lonesome Town
Band:  MxPx
Album: The Renaissance EP
By:    BassD
		          >=play a couple of time
	                  x=mute    /=slide down
		          ring=let the note sound
Intro x2
G|-------------------------|
D|-------------------------|
A|---------------------5>--|
E|-2-2-0-0-5>--2-2-0-0-----|

Verse
G|----------------------------------------------------------------|
D|----------------------------------------------------------------|
A|-----------x-x-5-x-x-5-x-x-5-----------x-x-5-x-x-5-x-x-5-x-x-5--|
E|-2-0-5>-4>-------------------2-0-5>-4>--------------------------|

Pre-Chorus
G|----------------------------------------------------------|
D|----------------------------------------------------------|
A|-2>-0>------------x-x-5-x-x-5-x-x-6-x-x-6-7>-5>-4>-2-2-2--|
E|-------0>---5>-4>-----------------------------------------|

Chorus
G|-----------------------------------------------------|
D|-----------------------------------------------------|
A|----4>----5>-/8>--------7>------4>----5>-/8>---------|
E|-5>----5>--------5>-7>-------5>----5>--------5>-7-0--|

Pre-Verse
G|-----------------|
D|-----------------|
A|-------------5>--|
E|-5>--2-2-0-0-----|

(Verse)
(Pre-Chorus)
(Chorus)
Then do this following the E|--7-0--|
G|--------------------------------------|
D|--------------------------------------|
A|-----------------------5ring--/8ring--|
E|-5ring---2ring--0ring-----------------|

End with this
G|(x3)----------------------|-------------------------------------|
D|--------------------------|-------------------------------------|
A|--------------------------|-5>-7>--------------5ring------------|
E|-5--5-5-4--4-4-2--2-2-0-0-|-------5>-4>-2>-0>--------2-2-0-0-5--|End

MxPx rules!!
If you ever want to buy the new cd The Renaissance EP write me
and I will tell you somethings you should know about the cd.
rancid_ska@hotmail.com
  development and support by
dmitry ivanov