rock
 
|tablatures   |lyrics   |discussion forums   |more tabs @ XGuitar.com

Mxpx tabs

Misunderstanding guitar tab

SONG:		   Misunderstanding
ARTIST:            MxPx
ALBUM:             Teenage Politics
LYRICS WRITTEN BY: Mike Herrera
MUSIC WRITTEN BY:  MxPx
TABBED BY:         (Dan422@aol.com) Dan Donathan



Intro: D  A  G  F#  G  F#  D  G <--(Guitar starts here)  F#  D  G  F#  D

Silent 'tll third G chord

Verses:
 D        A               G             F#  G       F#  D  G
----------------------------------------------------------------------
----------------------------------------------------------------------
-7...-----9--11--9...-----11--12...-----11--12...---11--7--12-11-7...-
-0...-----0--0---0...-----0---0....-----0---0....---0---0--0--0--0...-
----------------------------------------------------------------------
----------------------------------------------------------------------


 G   F# D
--------------||
--------------||
-12--11--7...-||
-0---0---0...-||
--------------||
--------------||

Verse 1:
D
Been told once been told twice
    A
He just won't listen to advice
     G             F#  G               F#  D  G  F#  D  G  F#  D
It's in God's book but he don't wanna look
D
Friends say that it's so uncool
        A
You're better off with out those rules
      G              F#   G            F# D  G  F#  D  G  F#  D
Your life's your own you live it all alone

Chorus:
G         D              B          B                            A
He can't ignore  (Can't ignore) His misunderstanding leaves him sore
G          D              B      B                                A
He can't explain (Can't explain) Why his life is full of so much pain
                       G  D  A  G  D  A  G  D  A
Full of so much pain

Interlude:  DDDD  D  G  F#  (Dsus4)   (4x)  (8x during Outro)

Verse 2:
     D
His parents pushed it on to him
    A
He wasn't ever really interested
         G          F#  G            F#   G    F#  G  D  F#  G
Now he's old enough to   make up his own mind

       D
He was only going through the motions
A
Now he's drowning in the oceans
          G            F#    G           F#    G      F#  G  D  F#  G
Of these hateful times and   he believes he's right

(Chorus)

Outro:  (Interlude w/ 2nd part 8x) then:  G  F#  D  (4x)
Interlude (1st Part)  (4x)           Interlude (2nd Part)(4x)(12x outro)
----------------------------------||  ----------------------||
---0--2--0--------0--0--2--0-----*||  --0...---5--4--0...--*||
------------3--2-----------------*||  ---------------------*||
----------------------------------||  ----------------------||

Then guitar does verse riff (Same as Bass for intro.)  (2x)

G  F#  D  (4x)
  development and support by
dmitry ivanov