rock
 
|tablatures   |lyrics   |discussion forums   |more tabs @ XGuitar.com

Mxpx tabs

More Everything bass tab

Artis:mxpx
Song :more everything
transcribed by:ramiro


mxpx is awesome punk band , and this new cd let everybody
know their experience and greatness



intro


  (x1)                           (x3)
g-----------------------------|-------------
d-7---------------------------|77-----------
a---77--99--55----------------|---77--99--55
e-----------------------------|-------------


verse(x2)

g-----------------------------
d--0>--77---------------------
a--------77--99--55-----------
e-----------------------------


pre chorus

g-----------------------------|--------
d--7>--9>---------------------|-7>--9>-
a---------9-11-12-14-14-12----|--------
e-----------------------------|--------


first chorus

g-----------------------------|-----
d--777777---------------------|7~---
a---------777777-9-11-12-14---|--7~-
e-----------------------------|-----


post chorus(x1)

  (x1)
g-----------------------------|-------------------
d----77-----------------------|-77-------------7~-
a--------77--99--55-----------|-----77--99--55----
e-----------------------------|-------------------



verse(x2)

g-----------------------------|----------------
d----77--------------0>-------|--77------------
a--------77--99--55-----------|----77--99--55--
e-----------------------------|----------------

pre chorus

second chorus(x4)

g-----------------------------|
d--777777---------------------|
a---------777777-9-11-12-14---|
e-----------------------------|

then play this
   (x1)    (x1)                      (x2)
g------|------------------|------------------------------|
d--7>--|--7>--9>--11>--13>|-7>--9>-------------- -7~--9~-|
a------|------------------|--------9--11--12--14---------|
e------|------------------|------------------------------|

intro (x3)

last bit

g-----------------------------|
d--77--99--11-11--13--13------|
a-----------------------------|
e-----------------------------|

second chorus (x4)

ending (intro x3)


ANY QUESTION OR COMMENT, WRITE ME (extreme_punker@hotmail.com) and please rate this tab!
  development and support by
dmitry ivanov