rock
 
|tablatures   |lyrics   |discussion forums   |more tabs @ XGuitar.com

Mxpx tabs

More Everything guitar tab

"More Everything" by Mxpx
Hi ppl!!! This is my 4th MxPx tab! I am so proud of Me-self.
This is a great song! Enjoy!
Tabbed By: Juan Handal

Intro:
e|------------------------------------------------|
B|------------------------------------------------|
G|------------------------------------------------|
D|-7-----2-----4-----2-----7-----2-----4-----2----|
A|-7-x2--2-x2--4-x2--2-x2--7-x2--2-x2--4-x2--2-x2-|
E|-5-----0-----2-----0-----5-----0-----2-----0----|

e|-----------------------------|
B|-----------------------------|
G|-6-6-6-4-2-4-2-2-2-2-4-6-7-6-|
D|-----------------------------| x4
A|-----------------------------|
E|-----------------------------|

Verse:
e|------------------------------|
B|------------------------------|
G|-7-~--------------------------|
D|-7-~-7-----2-----4------2-----| x2
A|-5-~-7-x2--2-x2--4-x2---2-x2--|
E|-----5-----0-----2------0-----|

e|--------------------------------------------------------------|
B|--------------------------------------------------------------|
G|-7-7-7-7-9-9-9-9-----------------7-7-7-7-7-7-7-7-xx-xx-xx-xx--|
D|-7-7-7-7-9-9-9-9-7-7-7-7-4-4-4-4-7-7-7-7-7-7-7-7-xx-xx-xx-xx--|
A|-5-5-5-5-7-7-7-7-7-7-7-7-4-4-4-4-5-5-5-5-5-5-5-5-xx-xx-xx-xx--|
E|-----------------5-5-5-5-2-2-2-2------------------------------|
  (----------Palm-Muted-----------)

Chorus:
e|---------------------|
B|---------------------|
G|-----------------7-9-|
D|-7-~-2-~---------7-9-|
A|-7-~-2-~-------4-5-7-|
E|-5-~-0-~-2-4-5-------|

e|-----------------------------|
B|-----------------------------|
G|-6-6-6-4-2-4-2-2-2-2-4-6-7-6-|
D|-----------------------------| x2
A|-----------------------------|
E|-----------------------------|

Verse:
e|------------------------------|
B|------------------------------|
G|-7-~--------------------------|
D|-7-~-7-----2-----4------2-----| x2
A|-5-~-7-x2--2-x2--4-x2---2-x2--|
E|-----5-----0-----2------0-----|

e|--------------------------------------------------------------|
B|--------------------------------------------------------------|
G|-7-7-7-7-9-9-9-9-----------------7-7-7-7-7-7-7-7-xx-xx-xx-xx--|
D|-7-7-7-7-9-9-9-9-7-7-7-7-4-4-4-4-7-7-7-7-7-7-7-7-xx-xx-xx-xx--|
A|-5-5-5-5-7-7-7-7-7-7-7-7-4-4-4-4-5-5-5-5-5-5-5-5-xx-xx-xx-xx--|
E|-----------------5-5-5-5-2-2-2-2------------------------------|
  (----------Palm-Muted-----------)

2nd Chorus:
e|-----------------------------------|
B|-----------------------------------|
G|-----------------7-9---------------|
D|-7-~-2-~---------7-9-7--xx-xx-xx-xx| x2
A|-7-~-2-~-------4-5-7-7--xx-xx-xx-xx|
E|-5-~-0-~-2-4-5-------5--xx-xx-xx-xx|

Bridge:
e|-------------------------------------------------------------------------|
B|-------------------------------------------------------------------------|
G|---------------------------------6-6-6-6-----------------7-7-7-7-9-9-9-9-|
D|-7-7-7-7-7-7-7-7-7-7-7-7-7-7-7-7-6-6-6-6-4-4-4-4-9-9-9-9-7-7-7-7-9-9-9-9-|
A|-7-7-7-7-7-7-7-7-7-7-7-7-7-7-7-7-4-4-4-4-4-4-4-4-9-9-9-9-5-5-5-5-7-7-7-7-|
E|-5-5-5-5-5-5-5-5-5-5-5-5-5-5-5-5---------2-2-2-2-7-7-7-7-----------------|
All Palm Mute

e|----------------------------------|
B|----------------------------------|
G|---------7-9~-------------6-7-9~--|
D|-4-6-7-9-7-9~-----4-6-7-9-6-7-9~--|
A|-4-6-7-9-5-7~-----4-6-7-9-4-5-7~--|
E|-2-4-5-7----------2-4-5-7---------|

e|-----------------------------|
B|-----------------------------|
G|-6-6-6-4-2-4-2-2-2-2-4-6-7-6-|
D|-----------------------------| x2
A|-----------------------------|
E|-----------------------------|

Repeat 2nd Chorus

Outro
e|-----------------------------|
B|-----------------------------|
G|-6-6-6-4-2-4-2-2-2-2-4-6-7-6-|
D|-----------------------------| x2
A|-----------------------------|
E|-----------------------------|

e|-----------------------------|
B|-----------------------------|
G|-6-6-6-4-2-4-6-6-6-4-2-4-2~--|
D|-----------------------------|
A|-----------------------------|
E|-----------------------------|
  development and support by
dmitry ivanov