rock
 
|tablatures   |lyrics   |discussion forums   |more tabs @ XGuitar.com

Mxpx tabs

Move To Bremerton guitar tab

Band: MxPx
Song: Move to Bremerton
Album: Life In General

Tunning: EADGBe

*: plam mute
~:let it ring

Intro:
e-------------------------------------------------------------------
B-------------------------------------------------------------------
G-------------------------------------------------------------------
D-----7-----7------------9-------12-----9----9-----------12------12-
A-5-5---5-5---5-5--10-10---10-10----7-7---7-7--7-7-10-10-----9-9----
E-------------------------------------------------------------------

Verse:
e----------------------------------
B----------------------------------
G-7-77777--------------------------
D-7-77777-55555--9-99999---77777--- 2x
A-5-55555-55555--9-99999---77777---
E---------33333--7-77777---55555---
    *****          *****

Chorus:
e--------------------------------------
B--------------------------------------
G--------777777------------------------
D-555555-777777-999999-777777-77-7-77--
A-555555-555555-999999-777777-77-7-77--
E-333333--------777777-555555-55-5-55--
                              **   **

2nd Verse:
e--------------------------------------------------
B--------------------------------------------------
G-7~--------------------77777----------------------
D-7~----5~---9~---7~----77777-555555-999999-77777--
A-5~----5~---9~---7~----55555-555555-999999-77777--
E-------3~---7~---5~----------333333-777777-55555--

Pre-Chorus:
e-----------------------------------------
B-----------------------------------------
G-----------------------------------------
D-5-5555555-9-9999999-8-8888888-7-777777-- 2x
A-5-5555555-9-9999999-8-8888888-7-777777--
E-3-3333333-7-7777777-6-6666666-5-555555--
    *******   *******   *******   ******

Then play:
Chorus 2x

Solo:
play intro basically, after you play it twice, play it again w/o plam muting

then Mike does bass solo after you play the start of Pre-Chorus once

Then you play:
Chorus till it fades

Comment Concerns E-Mail Moki1990@aol.com

JIMMY:GEE, I HEARD MOKI AND THE RED FX IS the COOLEST BAND EVER!
BILL: I WONDER WHO TOLD YOU TO SAY THAT
  development and support by
dmitry ivanov