rock
 
|tablatures   |lyrics   |discussion forums   |more tabs @ XGuitar.com

Mxpx tabs

My Life Story bass tab

Author/Artist: MxPx
Title: My Life Story
Album: The Ever Passing Moment
Transcribed by: Ron
Email: SHR00MMAJiK@aol.com

This program is written in guitar format so ignore the top 2 lines.
If anyone finds mistakes with this tab, let me know. Thanx and have fun!

Tuning:      E
             A
             D
             G                  Intro

-xxxxxxxxxxxxxxxxxxxxxxxxxxxxxxxxxxxxxxxxxxxxxxxxxxxxxxxxxxxxxxxxxxxxxxxxxxxx-
-xxxxxxxxxxxxxxxxxxxxxxxxxxxxxxxxxxxxxxxxxxxxxxxxxxxxxxxxxxxxxxxxxxxxxxxxxxxx-
----------------/x4/----|-----------------------------------------------------
------------------------|-----------------------------------------------------
--000000000000-55-------|-----------------------------------------------------
------------------------|-----------------------------------------------------
                  Verse

-xxxxxxxxxxxxxxxxxxxxxxxxxxxxxxxxxxxxxxxxxxxxxxxxxxxxxxxxxxxxxxxxxxxxxxxxxxxx-
-xxxxxxxxxxxxxxxxxxxxxxxxxxxxxxxxxxxxxxxxxxxxxxxxxxxxxxxxxxxxxxxxxxxxxxxxxxxx-
------------------------------------------------------------------------------
------------------------------------------------------------------------------
--0-7-0-55---------------------555555555555-----------------------------------
-----------5555/4444/2222/0000--------------00--------------------------------
                  Chorus

-xxxxxxxxxxxxxxxxxxxxxxxxxxxxxxxxxxxxxxxxxxxxxxxxxxxxxxxxxxxxxxxxxxxxxxxxxxxx-
-xxxxxxxxxxxxxxxxxxxxxxxxxxxxxxxxxxxxxxxxxxxxxxxxxxxxxxxxxxxxxxxxxxxxxxxxxxxx-
------------------------------------------------------------------------------
------------------------------------------------------------------------------
--00000000000000000000-5555---------------------------------------------------
----------------------------0000----------------------------------------------
                  Fill after chorus

-xxxxxxxxxxxxxxxxxxxxxxxxxxxxxxxxxxxxxxxxxxxxxxxxxxxxxxxxxxxxxxxxxxxxxxxxxxxx-
-xxxxxxxxxxxxxxxxxxxxxxxxxxxxxxxxxxxxxxxxxxxxxxxxxxxxxxxxxxxxxxxxxxxxxxxxxxxx-
------------------------------------------------------------------------------
------------------------------------------------------------------------------
--0-055-511-133-33------------------------------------------------------------
------------------------------------------------------------------------------
                  Bridge

-xxxxxxxxxxxxxxxxxxxxxxxxxxxxxxxxxxxxxxxxxxxxxxxxxxxxxxxxxxxxxxxxxxxxxxxxxxxx-
-xxxxxxxxxxxxxxxxxxxxxxxxxxxxxxxxxxxxxxxxxxxxxxxxxxxxxxxxxxxxxxxxxxxxxxxxxxxx-
------------------------------------------------------------------------------
------------------------------------------------------------------------------
--00000000-44444444--------------------00000000-44444444----------------------
--------------------22222222-00000000--------------------22222222-0-----------
  After Bridge          End on E-0

-xxxxxxxxxxxxxxxxxxxxxxxxxxxxxxxxxxxxxxxxxxxxxxxxxxxxxxxxxxxxxxxxxxxxxxxxxxxx-
-xxxxxxxxxxxxxxxxxxxxxxxxxxxxxxxxxxxxxxxxxxxxxxxxxxxxxxxxxxxxxxxxxxxxxxxxxxxx-
------------|-----------------------------||\\--//||--\\--//--||\\--\\--//----
------------|-----------------------------||-\\//-||---\\//---||//---\\//-----
-4444-------|-----------------------------||------||---//\\---||-----//\\-----
------0000--|-----------------------------||------||--//--\\--||----//--\\----
  development and support by
dmitry ivanov