rock
 
|tablatures   |lyrics   |discussion forums   |more tabs @ XGuitar.com

Mxpx tabs

Oh Donna bass tab

oh donna
mxpx
let it happen
tabbed by jared gardner     punkrawkfreak@hotmail.com

part 1
G|---------------------|
D|---------------------|
A|---5-----5---0-----5-|
E|-3-----3---------3---|

part 2
G|-----------------------------------------------------------------|
D|-----------------------------------------------------------------|
A|-5-5-5-5-5-5-5-5-5-5-5-5-5-5-5-5-----------------0-0-0-0-0-0-0-0-|
E|---------------------------------3-3-3-3-3-3-3-3-----------------|

part 3
G|--------------------------|
D|--------------------------|
A|-5---5---5-----0---5----0-|
E|-------------3---------3--|

part 4
G|---------------------------------------------------|
D|---------5---------------------4-5-7-5-4-5-7-7-7-7-|
A|-5---5-------7---5-0-----0---5---------------------|
E|-----------------------3---------------------------|

playing order:
part 1
part 2
part 3
part 4
part 2

that's about it, if it's not right, e-me
  development and support by
dmitry ivanov