rock
 
|tablatures   |lyrics   |discussion forums   |more tabs @ XGuitar.com

Mxpx tabs

On the Outs bass tab

Artist:mxpx
Song:on the outs
album:before everything and after
transcribed by:ramiro


verse(x2)
g-------------------------|
d-------------------------|
a--7>---------------------|
e-----5>--7>--9>--11>--9>-|



chorus(x2)

g--------------------------|
d--------------------------|
a----0>----2>-----4>---2>--|
e--0>----2>----4>----2>----|

 second verse

g-----------------------------|-------------------------|
d-----------------------------|-------------------------|
a--7>-------------------------|--7>---------------------|
e-----5>--7>--9>--11>--9>-hold|-----5>--7>--9>--11>--9>-|

chorus(x2)

interlude

g-------------------------|
d-------------------------|
a--7>--9>-----------------|
e---------9>--11>--9>-----|


bridge

(x1)                        (x1)                                (x1)
g------------------------|------------------------------------|----------|
d------------------------|------------------------------------|----------|
a--7>--9>--11>--13>--14--|--7>--9>--11>--13>--14--16--14--14--|-16-14-14-|
e------------------------|------------------------------------|----------|



when benji (good charlotte) and mike  sing together

g------------------------------------|
d------------------------------------|
a-------0-0------2-2----4>----2>-----|
e--0-0-------2-2-----4>----2>--------|


then this (x3)   (x1)
g--------------|-----------------------------|
d--------------|-----------------------------|
a--7>--9>--11>-|-7>--9>--11>--13>--16--14-14-|
e--------------|-----------------------------|


ending

g-------------------------|-----------------|
d-------------------------|-----------------|
a--7777--6-4-2------------|-7--6--4--2~-----|
e-------------------------|-----------------|



please rate this tab, (extreme_punker@hotmail.com)
  development and support by
dmitry ivanov