rock
 
|tablatures   |lyrics   |discussion forums   |more tabs @ XGuitar.com

Mxpx tabs

One Way Window bass tab

Song: One Way Window
Band: MxPx
Album: Pokinatcha
Bassist: Mike Herrera
Tabbed By: BassD

/=slide down  \=slide up
r=let the note ring
*=a pause

Intro (00:06)
G|------------------|
D|------------------|
A|-2-2-5-5-2-2-/14\-|
E|------------------|

Pre-Verse (00:07)
G|(x4)-----------------------------|
D|-------------------------2-------|
A|-2-2-2-2---------5-5-5-5----5--4-|
E|---------2-2-2-2-----------------|

Verse 1 (00:18) x2
G|-----------------------------------------------------------------
D|-----------------------------------------------------------------
A|-2-2-2-2-2-2-2-2-2-2-2-2-2-2-2-2-0-0-0-0-0-0-0-0-0-0-0-0-0-0-0-0-
E|-----------------------------------------------------------------
 (00:23)
G|-------------------------------------------------------------|
D|---------------------------------2-2-2-2-2-2-2-2-2-*-2-------|
A|-5-5-5-5-5-5-5-5-5-5-5-5-5-5-5-5------------------------5--4-|
E|-------------------------------------------------------------|

Chorus = Play Pre-Verse (00:38-00:39)

Intro 2 (00:49)     /(00:53)
G|(x3)--------------|(x1)-------------|
D|------------------|-----------------|
A|-2-2--------------|-2-2-5-5-2-2-/9\-|
E|-----2-2-/5-\2-/5-|-----------------|

Verse 2 (00:54-00:55)
G|(x2)-------------------------------------------------------------|
D|-----------------------------------------------------7-7-5-5-4-4-|
A|-2-2-2-2-2-2-2-2-5-5-5-5-5-5-5-5-2-2-2-2-2-2-2-2-5-5-------------|
E|-----------------------------------------------------------------|

Intro 3 (01:05)     /(01:09)
G|(x3)--------------|(x1)--------------|
D|------------------|------------------|
A|-2-2--------------|-2-2-5-5-2-2-/14\-|
E|-----2-2-/5-\2-/5-|------------------|

(Pre-Verse) (01:10-01:11)
(Verse 1) (x2) (01:21)

Outro (01:42)                      /(01:50)
G|(x3)-----------------------------|(x1)----------------------------------|
D|-------------------------2-------|-------------------------2------------|
A|-2-2-2-2---------5-5-5-5----5--4-|-2-2-2-2---------5-5-5-5----5--4-*-2r-|
E|---------2-2-2-2-----------------|---------2-2-2-2----------------------|
End

rancid_ska@hotmail.com
  development and support by
dmitry ivanov