rock
 
|tablatures   |lyrics   |discussion forums   |more tabs @ XGuitar.com

Mxpx tabs

Party, My House, Be There bass tab

Song: Party, My House, Be There
Band: MXPX
Bassist: Mike Herrara
Tabbed by: James Bradley

I used a tab by Funkel as the basis, but it
wasn't completely correct.

> means strum

Instrumental
G--------------------------------------------
D--------------------------------------------
A---------0>-2>------------------------------
E--0>--2>------------------------------------

Verse
G-----2>-------2-----------------------------
D--2>----2>----------------------------------
A-----------2>-------------------------------
E--------------------------------------------

Pre-Chorus
G---------------1----------------------------
D---------1-2-4---1--------------------------
A-------2-----------2------------------------
E-5>-4>--------------------------------------

Chorus, Part 1
G--------------------------------------------
D--2>----------------------------------------
A-----0>----2>-------------------------------
E--------2>----------------------------------

Chorus, Part 2
G--------------------------------------------
D--2>----2>----2>----------------------------
A-----0>----2>----0>-2>----------------------
E--------------------------------------------

Play order:
  Guitar and vocal intro
  Instrumental
  Verse a few times
  Instrumental
  Pre-Chorus
  Chorus, Parts 1 & 2
  Instrumental
  Verse(I'm not sure if he actually plays during this)
  Instrumental
  Pre-Chorus
  Chorus
  Instrumental(The third one is a different rhythm)
  Pre-Chorus(also a different rhythm)
  end of E (open on the deepest string)
  development and support by
dmitry ivanov