rock
 
|tablatures   |lyrics   |discussion forums   |more tabs @ XGuitar.com

Mxpx tabs

Play It Loud bass tab

band:mxpx
song:play it loud
cd:before and after everything #2
normal tuning

  INTRO 1
G:----------|
D:----------|
A:----------|
E:-6~---6~--|

INTRO 2
G:--------------------------|
D:--------------------------|
A:---------8-6---------8-6--|
E:-6x6x6x6-----6x6x6x6------|

VERSE                    2PT OF VERSE
G:----------------------|--------------------|
D:----------------------|--------------------|
A:---------8>?-----6>?--|-88888888-66666666--|
E:-6>?------------------|--------------------|

CHORUS
G:----------------------|
D:----------------------|
A:---------8>?-----6>?--|
E:-6>?------------------|

BRIDGE PT 1
G:----------------|
D:----------------|
A:-6>?-------8>?--|
E:------8>?-------|

BRIDGE PT 2
G:-------------------------|
D:-------------------------|
A:-------8~-----6~-----8~--|
E:-6~----------------------|

outro same as intro

thats the whole song believe it or not. but everythings going so fast
that i have no idea how many times he strums anything
so just listen to the cd to get it
its not all that hard!!!!
if you can count how many times its played please tell me
at hahanofriends911@netscape.net

good luck!!!!
  development and support by
dmitry ivanov