rock
 
|tablatures   |lyrics   |discussion forums   |more tabs @ XGuitar.com

Mxpx tabs

Punk Rawk Show guitar tab

Punk Rawk Show
By MxPx

0:00

---------------------------------------------------------- X2
----------------------------------------------------------
-5555----------7777---------------------------------------
-5555---7777---7777---5555--------------------------------
-3333---7777---5555---5555--------------------------------
--------5555----------3333--------------------------------


0:06        (Slower)

---------------------------------------------------------- X4
----------------------------------------------------------
-5555----------7777---------------------------------------
-5555---7777---7777---5555--------------------------------
-3333---7777---5555---5555--------------------------------
--------5555----------3333--------------------------------


0:25

----------------------------------------------------------  X4
----------------------------------------------------------
-5555----------7777---------------------------------------
-5555---7777---7777---5555--------------------------------
-3333---7777---5555---5555--------------------------------
--------5555----------3333--------------------------------


0:35         (Slower)

---------------------------------------------------------- X2
----------------------------------------------------------
-5555----------7777---------------------------------------
-5555---7777---7777---5555--------------------------------
-3333---7777---5555---5555--------------------------------
--------5555----------3333--------------------------------


0:44

----------------------------------------------------------
----------------------------------------------------------
-------------5555-5555------------------------------------
-3333-3333---5555-5555---5555-5555---7777-----------------
-3333-3333---3333-3333---5555-5555---7777-----------------
-1111-1111---------------3333-3333---5555-----------------


0:49

----------------------------------------------------------
----------------------------------------------------------
----------------------------------------------------------
-3333-3333---5555-5555------------------------------------
-3333-3333---5555-5555------------------------------------
-1111-1111---3333-3333------------------------------------

0:51

----------------------------------------------------------  X2
----------------------------------------------------------
-5555----------7777---------------------------------------
-5555---7777---7777---5555--------------------------------
-3333---7777---5555---5555--------------------------------
--------5555----------3333--------------------------------


0:56


----------------------------------------------------------
----------------------------------------------------------
-------------5555-5555------------------------------------
-3333-3333---5555-5555---5555-5555---7777-----------------
-3333-3333---3333-3333---5555-5555---7777-----------------
-1111-1111---------------3333-3333---5555-----------------


1:01

----------------------------------------------------------
----------------------------------------------------------
----------------------------------------------------------
-3333-3333---5555-5555------------------------------------
-3333-3333---5555-5555------------------------------------
-1111-1111---3333-3333------------------------------------

1:04         (Slower)

---------------------------------------------------------- X2
----------------------------------------------------------
-5555----------7777---------------------------------------
-5555---7777---7777---5555--------------------------------
-3333---7777---5555---5555--------------------------------
--------5555----------3333--------------------------------


1:13

---------------------------------------------------------- X2
----------------------------------------------------------
-55--------77--------4-5----------------------------------
-55---77---77---55---4-5----------------------------------
-33---77---55---55---2-3----------------------------------
------55--------33----------------------------------------


1:23         (Slower)

---------------------------------------------------------- X8
----------------------------------------------------------
-5555----------7777---------------------------------------
-5555---7777---7777---5555--------------------------------
-3333---7777---5555---5555--------------------------------
--------5555----------3333--------------------------------


1:50

----------------------------------------------------------
----------------------------------------------------------
-------------5555-5555------------------------------------
-3333-3333---5555-5555---5555-5555---7777-----------------
-3333-3333---3333-3333---5555-5555---7777-----------------
-1111-1111---------------3333-3333---5555-----------------


1:55

----------------------------------------------------------
----------------------------------------------------------
----------------------------------------------------------
-3333-3333---5555-5555------------------------------------
-3333-3333---5555-5555------------------------------------
-1111-1111---3333-3333------------------------------------



1:57        (Slower)

---------------------------------------------------------- X2
----------------------------------------------------------
-5555----------7777---------------------------------------
-5555---7777---7777---5555--------------------------------
-3333---7777---5555---5555--------------------------------
--------5555----------3333--------------------------------


2:06

----------------------------------------------------------
----------------------------------------------------------
-------------5555-5555------------------------------------
-3333-3333---5555-5555---5555-5555---7777-----------------
-3333-3333---3333-3333---5555-5555---7777-----------------
-1111-1111---------------3333-3333---5555-----------------


2:11

----------------------------------------------------------
----------------------------------------------------------
----------------------------------------------------------
-3333-3333---5555-5555------------------------------------
-3333-3333---5555-5555------------------------------------
-1111-1111---3333-3333------------------------------------


2:13

---------------------------------------------------------- X4
----------------------------------------------------------
-5555----------7777---------------------------------------
-5555---7777---7777---5555--------------------------------
-3333---7777---5555---5555--------------------------------
--------5555----------3333--------------------------------


2:24

----------------------------------------------------------
----------------------------------------------------------
-5--------------------------------------------------------
-5-hold---------------------------------------------------
-3--------------------------------------------------------
----------------------------------------------------------
  development and support by
dmitry ivanov