rock
 
|tablatures   |lyrics   |discussion forums   |more tabs @ XGuitar.com

Mxpx tabs

Quit Your Life bass tab

A Great Song by a Great Band!!!

Tuning: Standard (E A D G)



Verse(0:13)
G|----------------------------------------------------------------||
D|----------------------------------------------------------------||
A|-15/3-3--8-8--0-0--10-10--3-3--8-8--0-0--10-10-10-10------------||
E|----------------------------------------------------------------||


Chorus(0:28)
G|--------------------------
D|--------------------------  x2
A|-8-8--10-10--12-12/3-3----  and the 3rd
E|--------------------------  time play

G|----------------||
D|----------------||
A|-8-8--10-10/3~--||
E|----------------||

Rest
Verse(1:01)
G|----------------------------------------------------------------||
D|----------------------------------------------------------------||
A|-15/3-3--8-8--0-0--10-10--3-3--8-8--0-0--10-10-10-10------------||
E|----------------------------------------------------------------||


Chorus(1:16)
G|--------------------------
D|--------------------------  x2
A|-8-8--10-10--12-12/3-3----  and the 3rd
E|--------------------------  time play

G|----------------||
D|----------------||
A|-8-8--10-10-----||
E|----------------||


Interlude(1:32)
G|----------------------------------------------------------------||
D|----------------------------------------------------------------||
A|-8888-10101010-12121212-3333-8888-10101010----------------------||
E|----------------------------------------------------------------||

G|-----------------------------
D|----------------------------- x2
A|-8888-10101010-12121212-3333- Then...
E|-----------------------------

G|------------------||
D|------------------||
A|-8888-10101010-3~-||
E|------------------||

Rest
Verse(2:23)
G|----------------------------------------------------------------||
D|----------------------------------------------------------------||
A|-15/3-3--8-8--0-0--10-10--3-3--8-8--0-0--10-10-10-10------------||
E|----------------------------------------------------------------||


Chorus(2:38)
G|--------------------------
D|--------------------------  x2
A|-8-8--10-10--12-12/3-3----  and the 3rd
E|--------------------------  time play

G|--------------------------
D|--------------------------
A|-8-8--10-10--3-3-3-3------
E|--------------------------

Chorus x4 and the 5th time play

G|----------------||
D|----------------||
A|-8-8--10-10--3~-||
E|----------------||
  development and support by
dmitry ivanov