rock
 
|tablatures   |lyrics   |discussion forums   |more tabs @ XGuitar.com

Mxpx tabs

Realize bass tab

Song: Realize
Band: MxPx
Album: Pokinatcha
Bassist: Mike H.
Tabbed by: BassD

r=let the note ring
/=slide up
h=hammer-on  p=pull-off

Intro 1 (00:01)/(00:04)/(00:05-00:06)
G|------------|--------|-----------------|
D|------------|--------|-----------------|
A|------------|--------|-----------------|
E|-6r---------|-6r-----|-6-6-6-6-6-6-6-6-|

Verse (00:07) x2
G|------------------------------------------------------------
D|------------------------------------------------------------
A|-----------------8-9-8-8-9-8-6-6-6-6-6-6-6-6-4-4--/6--8-6-4-
E|-6-6-6-6-6-6-6-6--------------------------------------------

G|--------------------------------------------------------------|
D|--------------------------------------------------------------|
A|-----------------8-9-8-8-9-8-6-6-6-6-6-6-6-6-9--8--6----------|
E|-6-6-6-6-6-6-6-6--------------------------------------9--8--7-|

Chorus (00:28)
G|(x3)-----------------------------------------------------|
D|---------------------------------------------------------|
A|----------------4--4-4-4-4-4---------------8-8-8-6-6-6-4-|
E|-6--6-6-6-6-6-6--------------6-4--4-4--4-4---------------|
 (00:43)
G|(x1)----------------------------------------------------|
D|--------------------------------------------------------|
A|----------------4--4-4-4-4-4---------------8-8-8-6--6-4-|
E|-6--6-6-6-6-6-6--------------6-4--4-4--4-4--------------|

After-Chorus (00:48)
G|-------------------------------------
D|---------6h8p6-------------6h8p6-----
A|-----8-8-------8-8-----8-8-------8-8-
E|-6-6---------------6-6---------------
 (00:51)
G|-----------------------------------
D|---------4h6p4---------------------
A|-----6-6-------6-6-7-7-7-6-6-6-4-4-
E|-4-4-------------------------------
 (00:53)
G|-------------------------------------
D|---------6h8p6-------------6h8p6-----
A|-----8-8-------8-8-----8-8-------8-8-
E|-6-6---------------6-6---------------
(00:56)
G|-----------------------------------|
D|---------4h6p4---------------------|Follow quickly with
A|-----6-6-------6-6-7-7-7-6-6-6-4-4-|bridge
E|-4-4-------------------------------|

Bridge (00:58-00:59)
G|--------------------------------------------------------
D|--------------------------------------------------------
A|--------4--------------4-4---------4--------------4r-6r-
E|-6--4-6---6-4-6--6-4-6------6--4-6---6-4-6--6-4-6-------
 (01:03-01:04)
G|--------------------------------------------------------
D|--------------------------------------------------------
A|--------4--------------4-4---------4--------------7r-6r-
E|-6--4-6---6-4-6--6-4-6------6--4-6---6-4-6--6-4-6-------
 (01:09)
G|(x2)-------------------------------------------------------------|
D|-----------------------------------------------------------------|
A|-----------------7-7-7-6-6-6-4-4-----------------4-4-4-4-6-6-6-6-|
E|-6-6-6-6-6-6-6-6-----------------4-4-4-4-4-4-4-4-----------------|
 (01:19)
G|-------------------------------------------------|
D|-------------------------------------------------|Follow quickly
A|-6-6-6-4-4-4-7-7-6-6-6-4-4-4-7-7-6-6-6-4-4-4-3-3-|with Intro 2
E|-------------------------------------------------|

Intro 2 (01:22-01:23)/(01:25) /(01:26-01:27)
G|-------------------|--------|-----------------|
D|-------------------|--------|-----------------|
A|-------------------|--------|-----------------|
E|-6r----------------|-6r-----|-6-6-6-6-6-6-6-6-|

(Verse) (x2) (01:28)
(Chorus) (01:49-01:50)

Outro = After-Chorus (02:09)
G|-----------------------------------------------------------------------
D|---------6h8p6-------------6h8p6-------------4h6p4---------------------
A|-----8-8-------8-8-----8-8-------8-8-----6-6-------6-6-7-7-7-6-6-6-4-4-
E|-6-6---------------6-6---------------4-4-------------------------------
 (02:14)
G|---------------------------------------------------
D|---------6h8p6-------------6h8p6-------------4h6p4-
A|-----8-8-------8-8-----8-8-------8-8-----6-6-------
E|-6-6---------------6-6---------------4-4-----------
 (02:18)
G|-------------------------------------------------
D|-----------------4-4-4---------------------------
A|-7-7-7-6-6-6-4-4-------7-7-7-6-6-7-7-7-6-6-6-4-4-
E|-------------------------------------------------
 (02:21-02:22)
G|---------------------------|
D|---------------------------|
A|--------4--------------4-4-|
E|-6--4-6---6-4-6--6-4-6-----|End

rancid_ska@hotmail.com
  development and support by
dmitry ivanov