rock
 
|tablatures   |lyrics   |discussion forums   |more tabs @ XGuitar.com

Mxpx tabs

Sick Boy guitar tab

Artist: MxPx
Song: Sick Boy
Album: 10
Tabed By: Stafford
E-mail: punk6strings@excite.com


Intro
e--------|--------|--------|-7-7-7-7-7-7-7-7-5-5-5-5-7-7-7-7-----------|
B--------|--------|--------|-------------------------------------------|
G--------|--7-----|--------|-------------------------------------------|
D--7-----|--7-----|--2-----|-------------------------------------------|
A--7-----|--5--X3-|--2-----|-------------------------------------------|
E--5--X8-|--------|--0--X5-|-------------------------------------------|

e--5-5-5-5-5-5-5-5------------------7-7-7-7-7-7-7-7-5-5-5-5-7-7-7-7----|
B------------------5-5-5-5-5-5-5-5-------------------------------------|
G----------------------------------------------------------------------|
D----------------------------------------------------------------------|
A----------------------------------------------------------------------|
E----------------------------------------------------------------------|

e--5-5-5-5-5-5-5-5-----------------7-7-7-7-7-7-7-7-5-5-5-5-7-7-7-7-----|
B------------------5-5-5-5-5-5-5-5-------------------------------------|
G----------------------------------------------------------------------|
D----------------------------------------------------------------------|
A----------------------------------------------------------------------|
E----------------------------------------------------------------------|


Verse and Chorus
e--------|------|--------|---------------------------------------------|
B--------|------|--------|---------------------------------------------|
G--------|-7----|--------|---------------------------------------------|
D--7-----|-7----|--2-----|---------------------------------------------|
A--7-----|-5-X4-|--2-----|---------------------------------------------|
E--5--X8-|------|--0--X4-|---------------------------------------------|
    ^
Muted sumtimes
on verse

OUtro
e------------------------------------|----------------------------------|
B--5(play many times)----------------|----------------------------------|
G------------------------------------|----------------------------------|
D----------------------2-2--7-7------|----7-----------------------------|
A----------------------2-2--7-7------|----7-----------------------------|
E----------------------0-0--5-5------|----5-----------------------------|
					  ^ End on
  development and support by
dmitry ivanov