rock
 
|tablatures   |lyrics   |discussion forums   |more tabs @ XGuitar.com

Mxpx tabs

Small Town Minds bass tab

small town minds
mxpx
let it happen
tabbed by jared gardner     punkrawkfreak@hotmail.com

the whole intro is just Bb

this is the first half
G|-------------------------------------------------------------------|
D|-------------------------------------------------------------------|
A|-----------------4---4-4-4-4-4-4---------------------6---6-6-8-6-4-|
E|-6---6-6-6-6-6-6---------------------4---4-4-4-4-4-4---------------|

second half
G|---------------|
D|---------------|
A|-------6-8-6-4-|
E|-6---4---------|

third half (?)
G|-----------------|
D|-----------------|
A|---------6-8-6-4-|
E|-6-6---6---------|

well, i think that's all . . . except the second half, i haven't played
this song in a week, and i can't listen to it right now . . . i'm guessing . . . if that's not how it goes, improvise or something
  development and support by
dmitry ivanov