rock
 
|tablatures   |lyrics   |discussion forums   |more tabs @ XGuitar.com

Mxpx tabs

Small Town Minds guitar tab

Band: MXPX
Song: Small Town Minds
ALbum: Let it Happen

Tunning: EADGBe
*: palm mute
/: slide
~: let it ring

Intro Starter:
e----------------
B----------------
G-333x-333xxxx---
D-333x-333xxxx--- 8x
A-111x-111xxxx---
E----------------

Intro:
e-----------------------------------
B-----------------------------------
G--------6-6666---------8-8/9/8-----
D-8-8888-6-6666-6-6666--8-8/9/8----- 2x
A-8-8888-4-4444-6-6666--6-6/7/6-----
E-6-6666--------4-4444--------------
    ****   ****   ****

e-----------------------------------
B-----------------------------------
G------6666-------88/9/88-----------
D-8888-6666-6666--88/9/88----------- 4x
A-8888-4444-6666--66/7/66-----------
E-6666------4444--------------------

Verse: same as Intro without plam muting also
same # of times w/o plam muting

Breakdown:
 Small Town Small Minds
   .    .     .     .
e--------------------------------------
B--------------------------------------
G-------------6-----6---------88/9/88--
D-8-----8-----6-----6----6666-88/9/88-- 4x
A-8-----8-----4-----4----6666-66/7/66--
E-6-----6----------------4444----------

Outro:
e--------------------------------------
B--------------------------------------
G------888-------888-------888---------
D-888--888--888--888--888--888--66666-- 2x
A-888--666--888--666--888--666--66666--
E-666-------666-------666-------44444--

End On:
e------
B------
G------
D-8~---
A-8~---
E-6~---

Easy Tab
Comments Concerns E-Mail: Moki1990@aol.com
  development and support by
dmitry ivanov