rock
 
|tablatures   |lyrics   |discussion forums   |more tabs @ XGuitar.com

Mxpx tabs

So Kill Me bass tab

mxpx "so kill me"

intro
g---------------------------------------------
d---------------3-----------------------------
a-5-------5-----------------------------------
e---5-3-5---5-3-------------------------------

verse "losing my mind" & "go ahead and try"
g---------------------------------------------
d---------------------------------------------
a-5---5-----------------------------------------
e---3---3---------------------------------------

chorus "so when you feel like killing me"
g---------------------------------------------
d---------------------------------------------
a-------55555555------------------------------
e-5-3-5---------------------------------------

then
verse
chorus
break
chorus

by brettromero
  development and support by
dmitry ivanov