rock
 
|tablatures   |lyrics   |discussion forums   |more tabs @ XGuitar.com

Mxpx tabs

Study Humans bass tab

Song Title: Study Humans
Artist: MxPx
Album: Teenage Politics
tabbed by John and Don Gula


intro and outro
            play this part 2x
---------------------------------------------------------|-----------
-----------------0-2----------------2-0--------------0-2-|-2-0--2-0--
--------1-1-2-2-----------1-1-2-2------------1-1-2-2-----|----2-----2
---0-0----------------0-0----------------0-0-------------|-----------




chorus:
------------------------
--2----------------------   the notes here ARE played more then once.
-----0--2--4--0--2------
------------------------



Riff A:
-----------------------------------------------------
--2222--------------------2222----------------------
--------2-0-2-0-2-0-4-2----------2-0-2-0---------2--
---------------------------------------------4--0----


verse:


--------------------------------
------------4-2-4-2-4-2--------- 
--0-2-4-0----------------------
--------------------------------
after you play each line of the verse, you play riff A



I really love this song. I think it's spiffy;o)



John *Warp Spider*
  development and support by
dmitry ivanov