rock
 
|tablatures   |lyrics   |discussion forums   |more tabs @ XGuitar.com

Mxpx tabs

Study Humans guitar tab

Here it is!
Song:  Study Humans
Artist:  MxPx
Album:  Teenage Politics



e|-------------------------------------------------1-0-0-1-0-0-1-0-0-|
B|-------------1-0-------------3-5-------------1-0-------------------|
G|-----0-0-2-2---------0-0-2-2---------0-0-2-2-----------------------| <----fig. 1
D|-2-2-------------2-2-------------2-2-------------------------------|


E                            A     B
Every day I go to school and study humans 
C#                          A  B
I sit and watch them all go by
E                    A         B    
Every Day's a new day to study humans
C#                               A   B
I sit and observe this girl name Bri   With my eye


e|-0-0-0-0-------------------0-0-0-0------------------|
B|---------0--------------0----------0----------------|
G|-----------2--2-2-0-0-2--------------2--2-2-0-2-0---|
D|--------------------------------------------------2-|  <-----fig. 2


F#              A                              (fig. 2)
All those mannerisms and the funny things they do
F#               A                             (fig. 2)
Humans and their dogmas, they defend so selfishly




E                            A     B
Every day I go to school and study humans 
C#                          A  B
I sit and watch them all go by
E                    A         B    
Every Day's a new day to study humans
C#                               A   B
I sit and observe this girl name Bri   With my eye


F#                   A                               (fig. 2)
I'm planning to take over cause I hate living on the moon
F#                 A                                (fig. 2)
They won't get suspicious cause the soaps are on at noon


(Every day.....)
(after fig. 2, play fig. 1)
end



kritter@talltwn.com
  development and support by
dmitry ivanov