rock
 
|tablatures   |lyrics   |discussion forums   |more tabs @ XGuitar.com

Mxpx tabs

Sugarcoated Poison Apple bass tab

BAND: MxPx
SONG: Sugarcoated Poison Apple
CD: Teenage Politics
EMAIL: JAGNFL1112@aol.com

Hey everyone.  Now we have a new tab to add to the mxpx section.  Very easy song, wasn’t hard to figure out.  I’m surprised nobody tabbed it before me.  Well, anyway here it is...

Verse
G|-----------------------------------------------------|
D|----------------------------22222222-33333-55555-----|
A|---33333333333---------------------------------------|   (2x)
E|---------------33333333333---------------------------|

Pre-chorus
G|----------------------------|
D|------------2222-33-555-----|
A|---33333--------------------|   (2x)
E|---------3------------------|

G|-------------------------------|
D|---------------2222-33-555-----|
A|---3333------------------------|   (2x)
E|---------33333-----------------|

Chorus
G|----------------------------------------------|
D|----------------------------------------------|
A|---33333333333--------------------------------|   (2x)
E|----------------1>-000000000--11111-33333-----|

After Chorus
G|------------------------------------------------|
D|------------------------------------------------|
A|---3-3-33-3-333---2--3-3-33-3-333---2----|   (2x)
E|----------------3-----------------3-------------|

Verse

Pre-chorus

Chorus

After Chorus

Ending
G|------------------------------------------------------------|
D|----------------333333333333-222222222222-333333-55555------|
A|---333333333333-----------------------------------------3---|   (2x)
E|------------------------------------------------------------|

Awesome song.  A great cd, you should get it if you don’t already have it.  Thanks, rate it high - Jordan
  development and support by
dmitry ivanov