rock
 
|tablatures   |lyrics   |discussion forums   |more tabs @ XGuitar.com

Mxpx tabs

Swing Set Girl bass tab

Song: Swing Set Girl
Band: MXPX
Bassist: Mike Herrera
Tabbed by: James Bradley

This is pretty close to perfect, I might
have screwed it on one part.

> means strum
\ means slide
h means hammer on
p means pull off

Intro:
G---------------------------------------
D---------------------------------------
A--13\-1>-------------------------------
E---------------------------------------

Verse:
G---------------------------------------
D---------------------------------------
A--3>-------3>--------------------------
E-----3>-1>-----------------------------

Chorus:
G---------------------------------------
D---------------------------------------
A----------3>---------------------------
E--3>--1>-------------------------------

Instrumental:
G---------------------------------------
D-------------2h3p2-5-3-2---5-----------
A--3>-------3-------------3-------------
E-----3>-1>-----------------------------

Ending:
G---------------------------------------
D----2h3p2--5-3-2-----------------------
A--3--------------5-3-------------------
E---------------------------------------
  development and support by
dmitry ivanov