rock
 
|tablatures   |lyrics   |discussion forums   |more tabs @ XGuitar.com

Mxpx tabs

Talk of the Town bass tab

Song:  Talk Of The Town
Band:  MxPx
Album: The Renaissance EP
By:BassD	         >=play a couple of time
		         ring=let the note sound
		         /=slide down  \=slide up
		         *=a pause  x=mute

Intro
G|(x3)----------------------------------|-----------------|
D|--------------------------------------|-----------------|
A|---------3-----3-5----------3-----3-6-|-5>-3/6-6-3/6-6--|
E|-5-5-3-5---5-3------5-5-3-5---5-3-----|-----------------|

Verse            /Pre-Chorus
G|(x4)-----------|(x2)--------------------------|
D|---------------|------------------------------|
A|---------3-5-6-|-----------------------3-5-6--|
E|-5>--3-3-------|-5-5-x-3-5-5-x-3-5-5-x--------|

Chorus x4               /Bridge
G|----------------------|(x3)------|(x1)-------|
D|----------------------|----------|-----------|
A|----3>----5-5-5-5-6-7-|----6>-3>-|----6>-7>--|
E|-5>----3>-------------|-5>-------|-5>--------|

Chorus                  /Then end with
G|(x4)------------------|-------------------------------------------------------
D|----------------------|-------------------------------------------------------
A|----3>----5-5-5-5-6-7-|-----3-5-6-5-3-----------3-5-6-5-3-----------3-5-6-5-3-
E|-5>----3>-------------|-5*------------5>-3-3--3-----------5>-3-3--3-----------

---------------------------------------------------------|
---------------------------------------------------------|
-----------3-4-6-5-3----3>-5-5-5-6-5-3----3>-/6ring------|
-5>-3-3--3-----------5>----------------5>------------5\--|End

That's all for another really good MxPx song!
If you ever want to buy the new cd The Renaissance EP write me
and I will tell you somethings you should know about the cd.
rancid_ska@hotmail.com
  development and support by
dmitry ivanov