rock
 
|tablatures   |lyrics   |discussion forums   |more tabs @ XGuitar.com

Mxpx tabs

Teenage Politics bass tab

Teenage Politics
by MxPx
(c) 1995 Thirsty Moon River Publishing
Toonman (bass4jesus@aol.com)

Intro:
A-1-----1-------6-6-5-5-3-3-5-5-------------------6-6-5-5-3-3-5-5-
E-----------------------------------3-----3-----------------------

A-3-----3-------6-6-5-5-3-3-5-5-------------------6-6-5-5-6-6-8-8-|
E-----------------------------------1-----1-----------------------|

Verse:
A-1---------------3---------------|
E---------3---------------1-------|

Chorus:
A-3---------|
E---------1-|
  development and support by
dmitry ivanov