rock
 
|tablatures   |lyrics   |discussion forums   |more tabs @ XGuitar.com

Mxpx tabs

Teenage Politics guitar tab

Author/Artist: MxPx
Title: Teenage Politics
Transcribed by: Jordan Burtt
Email: gordan_00@hotmail.com

I'm sure this is 100% correct but it's my first tab so take it easy.
Cheers

Here's the Song order: - Intro x2
                                      Verse x2
                                      Riff A
                                      Verse x2
                                      Riff A
                                      Chorus x4
                                      Intro
                                      Verse x2
                                      Riff A
                                      Chorus x4
                                      Intro x2
                                      Outro

------------------------------------------------------------------------------
------------------------------------------------------------------------------
------------8-7-5/7-------------8-7-5/7---5-5-5-5-5-8-7-5/7-------------------
-8--8-8-8-8-8-7-5/7---5-5-5-5-5-8-7-5/7---5-5-5-5-5-8-7-5/7-------------------
-8--8-8-8-8-6-5-3/5---5-5-5-5-5-6-5-3/5---3-0-3-3-3-6-5-3/5-------------------
-6--0-6-6-6-----------3-0-3-3-3-----------------------------------------------
 Intro

------------------------------------------------------------------------------
------------------------------------------------------------------------------
-----------8-7-9/10-----------------------------------------------------------
-3-3-3-3-3-8-7-9/10-----------------------------------------------------------
-3-3-3-3-3-6-5-7/8------------------------------------------------------------
-1-0-1-1-1--------------------------------------------------------------------
 Intro (cont.)

------------------------------------------------------------------------------
------------------------------------------------------------------------------
-3-----------5----------------------------------------------------------------
-3-----5-----5-----3----------------------------------------------------------
-1-----5-----3-----3----------------------------------------------------------
-------3-----------1----------------------------------------------------------
 Verse - repeat each chord 8 times

------------------------------------------------------------------------------
------------------------------------------------------------------------------
-3-3-x-x-x-3-3-x-x-x-x-3-3-x-x-x-3-3------------------------------------------
-3-3-x-x-x-3-3-x-x-x-x-3-3-x-x-x-3-3------------------------------------------
-1-1-x-x-x-1-1-x-x-x-x-1-1-x-x-x-1-1------------------------------------------
------------------------------------------------------------------------------
 Riff A

------------------------------------------------------------------------------
------------------------------------------------------------------------------
-5----------------------------------------------------------------------------
-5-----3----------------------------------------------------------------------
-3-----3----------------------------------------------------------------------
-------1----------------------------------------------------------------------
 Chorus - repeat each chord 8 times (then little pause thingy)

------------------------------------------------------------------------------
------------------------------------------------------------------------------
-3-------5-------3-------5---3-----8-7-3--------------------------------------
-3---5---5---3---3---5---5---3-----8-7-3--------------------------------------
-1---5---3---3---1---5---3---1-----6-5-1--------------------------------------
-----3-------1-------3--------------------------------------------------------
 Outro - strum each chord once and let ring
  development and support by
dmitry ivanov