rock
 
|tablatures   |lyrics   |discussion forums   |more tabs @ XGuitar.com

Mxpx tabs

The Capitol bass tab

MxPx --- The Capitol

Tabbed by math

Standard Tuning (EADG)

Intro
G|-------------------------------------------------------|
D|-----------0~---0~--------------------0000000000000000-|
A|-0~---0~-------------0000000000000000------------------|
E|-------------------------------------------------------|

Verse
G|-----------------------------------------------------------------------|
D|---------------------------00000000------------------00000000-22222222-|
A|-0000000000000000-44444444----------2222222222222222-------------------| x2
E|-----------------------------------------------------------------------|

G|----|
D|----|
A|-0~-|
E|----|

Chorus
G|--------------------------------------------------------------------------------|
D|------------------0000000000000000----------------------------22222222----------|
A|-2222222222222222------------------------------------00000000----------------0~-|
E|-----------------------------------11111111-33333333-------------------1~-3~----|

Post-Chorus
G|-----------------------------------|
D|------------------0000000000000000-|
A|-0000000000000000------------------|
E|-----------------------------------|

Verse

Bridge
G|-----------------------------------------------------------|
D|----------------------------------------------0-2----------|
A|-00000000----------22222222----------22222222-----00000000-|
E|----------33333333----------33333333-----------------------|

Chorus

Outro x3
G|--------------------------------------------------------7----7-------7----7-------7----7-------7----7---|
D|----7----7-------7----7-------7----7-------7----7----00---00---0--00---00---0--00---00---0--00---00---0-|
A|-00---00---0--00---00---0--00---00---0--00---00---0-----------------------------------------------------|
E|--------------------------------------------------------------------------------------------------------|

End on A|-0~-|
  development and support by
dmitry ivanov