rock
 
|tablatures   |lyrics   |discussion forums   |more tabs @ XGuitar.com

Mxpx tabs

The Final Slowdance bass tab

Song:the final slowdance
Band:mxpx
Album:slowly going the way of the buffalo
tabbed by:chris



INTRO
G:--------------------------------------------------------------
D:--------------------------------------------------------------
A:--5-----------5-5-------------------------------------------
E:-----3-2-0--------3-2-0-5--------------------------------


G:---------------------------------------------------------------
D:---------------------------------------------------------------
A:-2--5555-------------------------------------------------------
E:-------------2-3-5------------------------------------------------


G:--------------------------------------------------------------
D:--------------------------------------------------------------
A:-5----2------------------------------------------------------
E:----2----3--5-----------------------------------------------


G:---------------------------------------------------------------
D:---------------------------------------------------------------
A:--------7-----------------------------------------------------
E:-3--5----2-3--5--------------------------------------------


THATS ALL OF IT...I DID NOT SPEND THE TIME FINDING OUT HOW MANY TIMES TO
PLAY
EACH NOTE SO YOU CAN DO THAT....I THINK IT IS RIGHT...IT SOUNDS RIGHT..SEE
YA
  development and support by
dmitry ivanov