rock
 
|tablatures   |lyrics   |discussion forums   |more tabs @ XGuitar.com

Mxpx tabs

The Opposite bass tab

Song:  The Opposite
Band:  MxPx
Album: The Renaissance EP
By:    BassD		    >=play a couple of time
		            ring=let the note sound
		            /=slide down  \=slide up

Intro
G|---------------------------------|
D|---------------------------------|
A|-------------5>-7>--------5>-7>--|
E|---12\-5>-7>--------5>-7>--------|

Verse
G|(x2)---------|---------------------------------------------------------------|
D|-------------|------------------------------------------4h5p4-3ring--/7>-9>--|
A|-------5>----|----0-2-4-2-0-----0-2-4-2-0---/5\---0-2-4----------------------|
E|-5>-3>----0>-|-2------------2-0-----------2-----2----------------------------|

Chorus x2
G|--------------|
D|--------------|
A|-------5>-7>--|
E|-5>-7>--------|

(Verse)
(Chorus x4)

During guitar solo
G|(x2)---------|---------------------------------------------------------------|
D|-------------|------------------------------------------4h5p4-3ring--/7>-9>--|
A|-------5>----|----0-2-4-2-0-----0-2-4-2-0---/5\---0-2-4----------------------|
E|-5>-7>----0>-|-2------------2-0-----------2-----2----------------------------|

End with chorus x4
End on E|--5ring--|


Enjoy MxPx Fans
If you ever want to buy the new cd The Renaissance EP write me
and I will tell you somethings you should know about the cd.
rancid_ska@hotmail.com
  development and support by
dmitry ivanov