rock
 
|tablatures   |lyrics   |discussion forums   |more tabs @ XGuitar.com

Mxpx tabs

The Struggle bass tab

Song:  The Struggle
Band:  MxPx
Album: The Renaissance EP
By:    BassD		    >=play a couple of time
		            ring and r=let the note sound
		            /=slide down  \slide up
		            x=mute

Intro
G|-----------------------------------------------------------|
D|-----------------------------------------------------------|
A|----------5--------------5---------------------------------|
E|---0-2-x>---5-x>--0-2-x>---5--5-5--5--5-5-4-4-4-4-4-4-4-4--|
All x>=played 12 times

Verse x2
G|----------------------------------------------------|
D|----------------------------------------------------|
A|-4>-5>-----------5>-7-7--7--7-7--7--7-7--7--7-7--7--|
E|-------5>-4>-\2>------------------------------------|

Chorus                         /Pre-Verse
G|(x4)-------------------------|------------------------------|
D|-----------------------------|-----------------------7\(3)--|
A|-9-9--9-4-4--4-5-5--5-7-7--7-|----5r----5r----5r-7>---------|
E|-----------------------------|-5r----5r----5r---------------|

(verse x2)
(Chorus x4)

Pre-Verse                 Again, for all x>=played 12 times
G|----------------------|--------------------------------------------------
D|----------------------|--------------------------------------------------
A|----5r----5r----5r-7>-|--------5--------------5--------------------------
E|-5r----5r----5r-------|-0-2-x>---5-x>--0-2-x>---5--5-5--5--5-5-4-4-4-4-4-

G|---------------------------------------------------------|
D|---------------------------------------------------------|
A|--------------5-------------------------5-7--7-7-7-7-7-7-|
E|-0-2--2-2-2-2---5--5-5-5-5-0-2--2-2-2-2------------------|

End
G|-------------------------------|
D|-------------------------------|
A|----5r----5r----5r-7>--/9ring--|
E|-5r----5r----5r----------------|End

When you mute, place your finger over E|--2--| when E|--0-2-x>--|
Same thing for E|--5-x>--| place your finger over E|--5--|.
Watch timing
That's all
If you ever want to buy the new cd The Renaissance EP write me
and I will tell you somethings you should know about the cd.
rancid_ska@hotmail.com
  development and support by
dmitry ivanov