rock
 
|tablatures   |lyrics   |discussion forums   |more tabs @ XGuitar.com

Mxpx tabs

Thoughts and Ideas guitar tab

Artist: MXPX
Song: Thoughts and Ideas
Tabbed by Lice
(as usual I didn’t put the rhythm on the Main riff and the Second riff)

Intro: Guitar 1
e---------------------------------------------------------------------
B--5-----3-----2------3p2h3-(3x)-----3-3-3-3-3---2-2------------------
G---------------------------------------------------------------------
D---------------------------------------------------------------------
A---------------------------------------------------------------------
E---------------------------------------------------------------------

Guitar 2: Intro/Main Riff
e---------------------------------------------
B---------------------------------------------
G---------------9----------12---------7-------
D----7----------9----------12---------7-------
A----7----------7----------10---------5-------
E----5----------------------------------------

Riff 2:
e-----------------------------------------------------------------------------
B-----------------------------------------------------------------------------
G---------------9---------------------9----------7-----9----------7-----9-----
D----7----------9----------7----------9----------7-----9----------7-----9-----
A----7----------7----------7----------7----------5-----7----------5-----7-----
E----5---------------------5--------------------------------------------------
  development and support by
dmitry ivanov