rock
 
|tablatures   |lyrics   |discussion forums   |more tabs @ XGuitar.com

Mxpx tabs

Time and Season guitar tab

-------------------------------------------------------------------------------
                                TIME AND SEASON - MxPx
-------------------------------------------------------------------------------

On The "Broken Bones" Vinyle
Budri@msn.com
Aol Instant Messanger: xxswatgoxx

In Order:                                                           [ Let
Ring ]
G|----------------------------------------11-11-------9-9-----11-11-----9>>-------|
D|-9------9-9-------------------------9-9-11-11-11-11-9-9-----11-11-9>>-9>>--11>>-|
A|-9-Bass-9-9---Pick-Slide-Downwards--9-9--9--9-11-11-7-7-///--9--9-9>>-7>>--11>>-|
E|-7------7-7---\\\\\\\\\\\\\\\\\\\\--7-7--------9--9---------------7>>-------9>>-|

G|-------9-9-9-11-11-11----------7-7-------9-9-9-11-11-11----------|
D|-9-9-9-9-9-9-11-11-11-11-11-11-7-7-9-9-9-9-9-9-11-11-11-11-11-11-|
A|-9-9-9-7-7-7--9--9--9-11-11-11-5-5-9-9-9-7-7-7--9--9--9-11-11-11-|
E|-7-7-7-----------------9--9--9-----7-7-7-----------------9--9--9-|

D|-9-9-///-11-11-\\\-9-9-\\\-7-7-///-9-9-///-11-11-|
A|-9-9-///-11-11-\\\-9-9-\\\-7-7-///-9-9-///-11-11-|
E|-7-7-///--9--9-\\\-7-7-\\\-5-5-///-7-7-///--9--9-|

D|-xx-9-xx-7-xx-5-xx-4-|
A|-xx-9-xx-7-xx-5-xx-4-|
E|-xx-7-xx-5-xx-3-xx-2-|

G|-------9-9-9-11-11-11----------7-7-------9-9-9-11-11-11----------|
D|-9-9-9-9-9-9-11-11-11-11-11-11-7-7-9-9-9-9-9-9-11-11-11-11-11-11-|
A|-9-9-9-7-7-7--9--9--9-11-11-11-5-5-9-9-9-7-7-7--9--9--9-11-11-11-|
E|-7-7-7-----------------9--9--9-----7-7-7-----------------9--9--9-|

G|-------9-9-9-11-11-11----------7-7-------9-9-9-11-11-11----------|
D|-9-9-9-9-9-9-11-11-11-11-11-11-7-7-9-9-9-9-9-9-11-11-11-11-11-11-|
A|-9-9-9-7-7-7--9--9--9-11-11-11-5-5-9-9-9-7-7-7--9--9--9-11-11-11-|
E|-7-7-7-----------------9--9--9-----7-7-7-----------------9--9--9-|

          [PM]         [PM]         [PM]        [Let Ring]
G|----------------------------------------------9>>>-------|
D|-9-9-9--9xxx--9-9-9--9xxx--9-9-9--9xxx--9-9-9-9>>>-11>>>-|
A|-9-9-9--9xxx--9-9-9--9xxx--9-9-9--9xxx--9-9-9-7>>>-11>>>-|
E|-7-7-7--7xxx--7-7-7--7xxx--7-7-7--7xxx--7-7-7-------9>>>-|

G|-------9-9-9-11-11-11----------7-7-------9-9-9-11-11-11----------|
D|-9-9-9-9-9-9-11-11-11-11-11-11-7-7-9-9-9-9-9-9-11-11-11-11-11-11-|
A|-9-9-9-7-7-7--9--9--9-11-11-11-5-5-9-9-9-7-7-7--9--9--9-11-11-11-|
E|-7-7-7-----------------9--9--9-----7-7-7-----------------9--9--9-|

D|-9-9-///-11-11-\\\-9-9-\\\-7-7-///-9-9-///-11-11-|
A|-9-9-///-11-11-\\\-9-9-\\\-7-7-///-9-9-///-11-11-|
E|-7-7-///--9--9-\\\-7-7-\\\-5-5-///-7-7-///--9--9-|

D|-xx-9-xx-7-xx-5-xx-4-|
A|-xx-9-xx-7-xx-5-xx-4-|
E|-xx-7-xx-5-xx-3-xx-2-|

G|-------9-9-9-11-11-11----------7-7-------9-9-9-11-11-11----------|
D|-9-9-9-9-9-9-11-11-11-11-11-11-7-7-9-9-9-9-9-9-11-11-11-11-11-11-|
A|-9-9-9-7-7-7--9--9--9-11-11-11-5-5-9-9-9-7-7-7--9--9--9-11-11-11-|
E|-7-7-7-----------------9--9--9-----7-7-7-----------------9--9--9-|

G|-------9-9-9-11-11-11----------7-7-------9-9-9-11-11-11----------|
D|-9-9-9-9-9-9-11-11-11-11-11-11-7-7-9-9-9-9-9-9-11-11-11-11-11-11-|
A|-9-9-9-7-7-7--9--9--9-11-11-11-5-5-9-9-9-7-7-7--9--9--9-11-11-11-|
E|-7-7-7-----------------9--9--9-----7-7-7-----------------9--9--9-|

D|-xx-9-xx-9--7-7-7-7-7-7-xx-9-xx-9--5-5-5-5-5-5-xx-9-xx-9--7-7-7-7-7-7-|
A|-xx-9-xx-9--7-7-7-7-7-7-xx-9-xx-9--5-5-5-5-5-5-xx-9-xx-9--7-7-7-7-7-7-|
E|-xx-7-xx-7--5-5-5-5-5-5-xx-7-xx-7--3-3-3-3-3-3-xx-7-xx-7--5-5-5-5-5-5-|

D|-xx-9-xx-9--5-5-5-5-5-5--xx-9-xx-7-xx-5-xx-4-------5----------|
A|-xx-9-xx-9--5-5-5-5-5-5--xx-9-xx-7-xx-5-xx-4-Fade--5-Let-Ring-|
E|-xx-7-xx-7--3-3-3-3-3-3--xx-7-xx-5-xx-3-xx-2-------3----------|

-------------------------------------------------------------------------------
  development and support by
dmitry ivanov