rock
 
|tablatures   |lyrics   |discussion forums   |more tabs @ XGuitar.com

Mxpx tabs

Time Will Tell bass tab

Song:  Time Will Tell
Band:  MxPx
Album: The Renaissance EP
By:    BassD	     	    >=play a couple of time
		            ring=let the note sound
		            *=a pause  /=slide down
		            x=mute

Intro "Play Fast"
G|(x2)---------------------------|---------------------------|
D|-------------------------------|---------------------------|
A|-5--55555-3-6-5-0--00000-8-7-3-|-5-5--5-3-6-5-0-0--0-8-7-3-|
E|-------------------------------|---------------------------|

Verse x2
G|------------------------------------|
D|------------------------------------|
A|-5-5--5-3-3--3-6-6--6--------8>-----|
E|----------------------6-6--6----5>--|

Chorus x2
G|------------------------------------------------------------|
D|------------------------------------------------------------|
A|-5-5-5-------------------6-6--5-5-5-------------------6-6*--|
E|-------5-5-5-3-3-3-6-6-6------------5-5-5-3-3-3-6-6-6-------|

G|---------------------------------------------------------------|
D|---------------------------------------------------------------|
A|-5-5-5-------------------6-6--5-5-5-------------------6-6*-5*--|
E|-------5-5-5-3-3-3-6-6-6------------5-5-5-3-3-3-6-6-6----------|

Guitar do first part of intro
G|-------------------------------|
D|-------------------------------|
A|---------8-7-3-5*-------8-7-3--|
E|-------------------------------|

(Verse x2)

Chorus
G|------------------------------------------------------------|
D|------------------------------------------------------------|
A|-5-5-5-------------------6-6--5-5-5-------------------6-6*--|
E|-------5-5-5-3-3-3-6-6-6------------5-5-5-3-3-3-6-6-6-------|

G|------------------------------------------------------------|
D|------------------------------------------------------------|
A|-5-5-5-------------------6-6--5-5-5-------------------6-6*--|
E|-------5-5-5-3-3-3-6-6-6------------5-5-5-3-3-3-6-6-6-------|

Bridge                                     For the first 6 notes of
G|----------------------------------------|---------------|the bridge, here
is a
D|----------------6------6/7----6---7-7-6-|---------------|another way to
play that part.
A|-----6-----5-5----5--5------5---5-------|-----6-----x---|That little part
was tricky to
E|-5-4---5-4------------------------------|-5-4---5-4-----|to hear but it
looks like this.

G|--------------------------------------------------------|
D|----6------6/7----6---7-7-6----6------6/7----6---7-7-6--|
A|-5----5--5------5---5-------5----5--5------5---5--------|
E|--------------------------------------------------------|

G|---------------------------------|
D|----6------6/7----6---7-7-6ring--|
A|-5----5--5------5---5------------|
E|---------------------------------|

End "Fast"
G|----------------------------------------------------------
D|----------------------------------------------------------
A|-5-5-5-------------------6-6--5-5-5-------------------6-6-
E|-------5-5-5-3-3-3-6-6-6------------5-5-5-3-3-3-6-6-6-----

------------------------------|(x2)--------------------------|
------------------------------|------------------------------|
-5-5-5-------------------6-6*-|-5-5-5-------------------6-6--|
-------5-5-5-3-3-3-6-6-6------|-------5-5-5-3-3-3-6-6-6------|End

Hard intro and cool riff!
If you ever want to buy the new cd The Renaissance EP write me
and I will tell you somethings you should know about the cd.
rancid_ska@hotmail.com
  development and support by
dmitry ivanov