rock
 
|tablatures   |lyrics   |discussion forums   |more tabs @ XGuitar.com

Mxpx tabs

Tomorrow's Another Day guitar tab

-------------------------------------------------------------------------------                            Tomorrow is Another Day - MxPx
-------------------------------------------------------------------------------

By: brock

Intro - 2 times
e|---------------------------------------------------------------------------|
B|---------------------------------------------------------------------------|
G|---4----6------------------------------------------------------------------|
D|-4-4-4--6--2---------------------------------------------------------------|
A|-4-2-4--4--2---------------------------------------------------------------|
E|-2---2-----0---------------------------------------------------------------|
  p.m.----->

Verse 1 - 4 times
e|---------------------------------------------------------------------------|
B|---------------------------------------------------------------------------|
G|-4---6---------------------------------------------------------------------|
D|-4-4-6-2-------------------------------------------------------------------|
A|-2-4-4-2-------------------------------------------------------------------|
E|---2---0-------------------------------------------------------------------|


Pre-Chorus - 1 time
e|---------------------------------------------------------------------------|
B|---------------------------------------------------------------------------|
G|-4-4----4-4----------------------------------------------------------------|
D|-4-4-2--4-4-2-4------------------------------------------------------------|
A|-2-1-2--2-1-2-4------------------------------------------------------------|
E|-----0------0-2------------------------------------------------------------|

Part after Pre-chorus
e|---------------------------------------------------------------------------|
B|------------------------2 times -------------------------------------------|
G|-8-6-4-3--9-8-4--9-8-6----then----4-4--------------------------------------|
D|-*-*-*-*--*-*-*--*-*-*----play----4-4-2-4----------------------------------|
A|-6-4-2-1--7-6-2--7-6-4------------2-1-2-4----------------------------------|
E|--------------------------------------0-2----------------------------------|
					 p.m.

Verse 2 - 4 times > exactly same played as verse 1.
pre-chorus - 1 time > exactly same played as the above pre-chorus.

Break> 1 time and Chorus> 4 times- "today didnt have to be this way..."
e|---------------------------------------------------------------------------|
B|--------------then play----------------------------------------------------|
G|-4---6-------------------8-4----6-4-3-4-----11--6-4-3-4--------------------|
D|-4-4-6-2-4---------------*-*----*-*-*-*-----*---*-*-*-*--------------------|
A|-2-4-4-2-4---------------6-2----4-2-1-2-----9---4-2-1-2--------------------|
E|---2---0-2-----------------------------------------------------------------|
			3 times

		       |___play twice____|  |__play twice__|


comments --> pay_one@hotmail.com
  development and support by
dmitry ivanov