rock
 
|tablatures   |lyrics   |discussion forums   |more tabs @ XGuitar.com

Mxpx tabs

Too Much Thinking guitar tab

Song: Too Much Thinking
Artist:  MxPx (Magnified Plaid)
Album:  Pokinatcha


C              G
I can't get to sleep at night just
A                  F                  C     G    A    F
thinkin' about the day that you'll be here,   oh yeah

C, G, A, F  (plus lead part, shown below)

e|-----------------------------------------------|
B|-----------------------------------------------|
G|------------------------5----------------------|
D|--------------5-5-5-5-7---7-7-5----------------|
A|---3-3-3-5/7--------------------6-6-5-3--5-3---|
E|-----------------------------------------------|


e|-----------------------------------------------|
B|-----------------------------------------------|
G|-----------------------5-----------------------|
D|-------------5-5-5-5-7---7-7-5-----------------|
A|---3-3-3-5/7-------------------6---------------|
E|-----------------------------------------------|



C              G
I can't get to sleep at night just
A                  F                  C    G   A   F
thinkin' about the day that you'll be here
C                   G
every thing's gonna be alright when I'm
A              F           C    G   A  F
thinkin' about holding you near


C        G     A           F
Will you look away from me?
C            G     A           F
Please don't look away from me


D         G  A C            G       C
I'm gonna sit, and consider flowers
D         G  A C             G
I'm gonna sit, and think for hours


C             G
Right now the box I'm in well
A
it's a good box
  F                C  G  A  F
I hope you'll open it
C                G
The way I see it in my mind is that
A                F                C  G  A  F
you are here and there your gonna sit


C  F  C  G  C  F  C  G


C                  F
What it comes down to is this
C                    G
with my expectations did I miss
C               F
Oh, the way you felt for me
C                    G
or did you ever want this to be?

C  F  C  G  C  F  C  G
  development and support by
dmitry ivanov