rock
 
|tablatures   |lyrics   |discussion forums   |more tabs @ XGuitar.com

Mxpx tabs

Under Lock and Key bass tab

Song: Under Lock and Key
Artist: MxPx
Tabbed by: Cameron (no one can think of a nickname for me)
E-mail: bassplayer4him@juno.com

Hey hereís a song that i learned and i know itís right. The guy who had
it in here before wasnít right. he musta been outta it or somethiní when
he tabbed it (no offense). Itís exactly like every other punk rawk song
chord patter in the world. well, one of Ďem at least. here it is.

Intro x2
G|-----------------------------------------------------------------------
D|-----------------------------------------------------------------------
A|--6--6--6-6-6-6--------------------------------------------------------
E|----------------6--8--8--8-8-8-8--3--4--4--4-4-4-4--5--6--6--6-6-6--6--



Verse x2 each time
G|-------------------------------------------------------------------------
D|-------------------------------------------------------------------------
A|-6--6--6-6-6-6-6---------------------------------------------------------
E|-----------------4--4--4-4-4-4-4--6--6--6-6-6-6-6--8--8--8--8--4--4--6--6

Chorus x2 each time

G|--------------------------------------------------------------------
D|--------------------------------------------------------------------
A|-----------------3--3--3-3-3-3-3--6--6--6-6-6-6-6-------------------
E|-3--3--3-3-3-3-3-----------------------------------6--6--6-6-6-6-6--

Bridge thing (they donít do it this way orginally, but they do it live
and it sounds better)

G|----------------------------------------------------
D|----------------------------------------------------
A|--6-6-6-6----6-6-6-6-----------------------------
E|--------------------------4-4-4-4----3-3-3-3--6--

If the rhythm isnít exactly right, then itís just hard to tab. itís
pretty easy to get the hang of once you get it. I also know the correct
tabs for chick magnet, and iíll send it in sometime. if u want Ďem, ask
me, then iíll do it. but iím pretty lazy, so i canít beleive i got
around to doing this.
  development and support by
dmitry ivanov