rock
 
|tablatures   |lyrics   |discussion forums   |more tabs @ XGuitar.com

Mxpx tabs

Well Adjusted bass tab

Song: Well Adjusted
Artist: MxPx
Album: Before Everything and After
By: David
if you have any complaints or corrections, you can IM me at Mxgsf prezPx
for all you guitarists out there, if you want the guitar tabs for this awesome song check ice ice alan's tabs, in the guitar section of mxtabs

Intro
G|---------------------------------------------------------|
D|---------------------------------------------------------|
A|--------------------------------------------1------------|
E|--333xxx333xxx333xxx333xxx333xxx333xxx333----1-----------|

G|-----------------------------------------------|
D|-----------------------------------------------|
A|--------------66xx66xx------11xx--------1------|
E|--33xx66xx------------33xx------1111-----1-----|

Verse
G|------------------------------------------|
D|------------------------------------------|
A|-----------666-666-------------666-666----|    x2
E|-333-666-------------333-666--------------|

G|----------------------|
D|----------------------|
A|-----------------66---|    x3
E|-0660550330-----------|

Pre-Chorus
G|---------------------------------------------|
D|---------------------------------------------|
A|---------------5506666--44444444-33333333----|
E|-660550330-----------------------------------|

Chorus
G|--------------------------------------|
D|--------------------------------------|
A|----------------------888888-888888---|    x2
E|-666666-888888------------------------|

G|---------|
D|---------|   x1
A|-1-------|
E|---1-----|

Verse
G|--------------------------------------------|
D|--------------------------------------------|
A|-------------666-666-------------666-666----|    x2
E|-333-666-------------333-666----------------|

G|----------------------|
D|----------------------|
A|-----------66---------|    x3
E|-0660550330-----------|

Pre-Chorus
G|--------------------------|
D|--------------------------|
A|---------------5506666----|
E|-660550330----------------|

G|---------------------------|
D|---------------------------|
A|--44444444----------666----| x2
E|----------------666--------|

G|------------------------|
D|------------------------|
A|--44444444--33333333----|
E|------------------------|

Chorus
G|--------------------------------------|
D|--------------------------------------|
A|----------------------888888-888888---|    x2
E|-666666-888888------------------------|

G|---------|
D|---------|   x1
A|-1--1---|
E|---1--1-|

Bridge - Guitar Only

Chorus
G|--------------------------------------|
D|--------------------------------------|
A|----------------------888888-888888---|    x2
E|-666666-888888------------------------|

G|---------|
D|---------|   x1
A|-1-------|
E|---1-----|

Outro
G|-----------------------------------------------------------|
D|-----------------------------------------------------------|
A|-----------------66xxx66xxx--------11xxx----------1--------|
E|--33xxx66xxx----------------33xxx-------11xxx------1-------|

G|--------------------------------------------------------|
D|--------------------------------------------------------|
A|-----------------66xxx66xxx--------11xxx----------1-----|
E|--33xxx66xxx----------------33xxx--------1111------1--3-|
  development and support by
dmitry ivanov