rock
 
|tablatures   |lyrics   |discussion forums   |more tabs @ XGuitar.com

Mxpx tabs

You Make Me, Me guitar tab

MxPx
\" you make me, me \"
Before Everything and After
Tabbed by jake Loleit
Questions or comments: jakeloleit@hotmail.com

Standard Tuning

Intro

|---------|     |------------------|
|---------|     |------------------|
|-7-11-14-|2x\'s |-12-11-9-7-11-9-6-|
|-7-11-14-|Then |-12-11-9-7-11-9-6-|
|-5-9--12-|     |-10-9--7-5-9--7-4-|
|---------|     |------------------|

|---------|     |-----------------|
|---------|     |-----------------|
|-7-11-14-|2x\'s |-12-11-9-7-11-9--|
|-7-11-14-|Then |-12-11-9-7-11-9--|
|-5-9--12-|     |-10-9--7-5-9--7--|
|---------|     |-----------------|
                                   
Pre-Verse
|---------|
|---------|
|---------|
|-----6-7-|
|-7-9-4-5-|
|-5-7-----|

Verse
|---------------|
|---------------|
|-7---7-9-11-12-|
|-7-9-7-9-11-12-|
|-5-9-5-7-9--10-|
|---7-----------|

Pre-Chorus
|-----------------|
|-----------------|
|-----------------|
|-7-9-7-5-4-9-5-7-|
|-7-9-7-5-4-9-5-7-|
|-5-7-5-3-2-7-3-5-|

Chorus #1
|---------|     |------------------|
|---------|     |------------------|
|-7-11-14-|2x\'s |-12-11-9-7-11-9-6-|
|-7-11-14-|Then |-12-11-9-7-11-9-6-|
|-5-9--12-|     |-10-9--7-5-9--7-4-|
|---------|     |------------------|


Pre-verse
Verse
Pre-chorus

Chorus #2
|---------|     |------------------|
|---------|     |------------------|
|-7-11-14-|2x\'s |-12-11-9-7-11-9-6-|
|-7-11-14-|Then |-12-11-9-7-11-9-6-|
|-5-9--12-|     |-10-9--7-5-9--7-4-|
|---------|     |------------------|

|---------|     |-----------------|
|---------|     |-----------------|
|-7-11-14-|2x\'s |-12-11-9-7-11-9--|
|-7-11-14-|Then |-12-11-9-7-11-9--|
|-5-9--12-|     |-10-9--7-5-9--7--|
|---------|     |-----------------|

Breakdown
|---------|        |---------------------|
|---------|        |---------------------|
|-7-----7-| then   |-----9---9-----------|
|-7-5-8-7-|        |-5-7-9-5-9-7-5-7-5-7-|
|-5-5-8-5-|        |-5-7-7-5-7-7-5-7-5-7-|
|---3-6---|        |-3-5---3---5-3-5-3-5-|

Chorus#2


Breakdown
|-----------|
|-----------|
|-----------|
|-5-9-7-5-7-|
|-5-9-7-5-7-|
|-3-7-5-3-5-|

Chorus #2

|---------|
|---------|
|-7-----7-|
|-7-5-8-7-|
|-5-5-8-5-|
|---3-6---|
  development and support by
dmitry ivanov