rock
 
|tablatures   |lyrics   |discussion forums   |more tabs @ XGuitar.com

Mxpx tabs

Your Problem My Emergency bass tab

BAND: mxpx
SONG: Your Problem My Emergency
CD: Life In General
EMAIL: JAGNFL1112@aol.com

This is a cool song on a great cd.  Most of their cd’s are great.

Intro
G|-------------------------------------------------------------------|
D|-------------222222---------------------------222222---------------|
A|-----222222----------------------------222222----------------------|
E|--------------------444444--222222-------------------444444--2-----|

Verse
G|-----------------------------------------------------------|
D|-------------------2222222222------------------------------|
A|------2222222222-------------------------------------------|
E|-------------------------------4444444444---222222222------|

After Verse
G|-------------------------------------------------------------------------|
D|-----------44444---66666---22--11-------------44444--222-111-----111-----|
A|----22222--------------------------44---22222----------------444---------|
E|-------------------------------------------------------------------------|

Chorus
G|------------------------------------------------------------|
D|--222222222222--444444444444--------------------------------|
A|------------------------------22222222222-------------------|
E|-------------------------------------------4444444444-------|

G|-------------------------------------------------------------------------|
D|-----222222222222--444444444444-------111---------------222--444--6-4----|
A|-----------------------------------22----------------22------------------|
E|-----------------------------------------444--2222-----------------------|

G|-------------------------------------------------------------|
D|------111------------222222-1111111--------------------------|
A|---22--------------------------------444444-222-111-2--------|
E|----------444--222-------------------------------------------|

After Chorus
G|---------------------------------------------------------------------------|
D|------4--6--2-1--------4--6--2-1---------1-2-1-----------1-2-1-------------|
A|---2------------4----2-----------4-------------2-0-------------2-0---------|  (2x)
E|---------------------------------------4---------------4-------------------|

G|--------------------|
D|---------44444------|
A|--------------------|
E|---4444-------------|

Verse

After Verse

Chorus

Bridge (“Why is your problem, always my emergency...”)
G|---------------------------------------|
D|-------------22222222222--6-4----------|
A|--222222222----------------------------|  (4x)
E|---------------------------------------|

Ending
G|------------------------------------------------------------|
D|-----111---------------222--444--6-4------111---------------|
A|--22----------------22-----------------22-------------------|
E|---------444--222-----------------------------444-222-------|

G|-------------------------------------------|
D|---2222222-1111111-------------------------|
A|-------------------4444444-222-111-2>------|
E|-------------------------------------------|

Awesome song.  I think it’s fun to play.  Rate this - Jordan
  development and support by
dmitry ivanov