rock
 
|tablatures   |lyrics   |discussion forums   |more tabs @ XGuitar.com

Mxpx tabs

You're Not Alone guitar tab

r=ring

intro
--------------------
--------------------
----7-----7---------
-7--7--7--7--7------
-7--5--7--5--7------
-5-----5-----5------ repeat this 2 times

intro 2
-----------------------------
-----------------------------
-----------------7--9--------
-9---8---7---6---7--9--7---7-
-9---8---7---6---5--7--7---7-
-7-r-6-r-5-r-4-r-------5-r-5-

verse
-------------------
-------------------
---------4---7-----
-7---2---4---7-----x4
-7---2---2---5-----
-5---0-------------

bridge thingy
-----------------------------------------
-----------------------------------------
----7-----7--9-----7-----7--9------------
-7--7--7--7--9--7--7--7--7--9------------
-7--5--7--5--7--7--5--7--5--7--pickslide-
-5-----5--------5-----5------------------

chorus
-------------------
-------------------
-------------7-----
-7---2---4---7-----x4
-7---2---4---5-----
-5---0---2---------

solo
--------------------------------------
--7---6--9---6---7---6--7-9-6-7-9-6---
----6------6-------6------------------
--------------------------------------
--------------------------------------
--------------------------------------

Sometimes I don't understand how you feel.... part
breakdown
---------------------------
---------------------------
-----------------7--9------
-9---8---7---6---7--9--7---
-9---8---7---6---5--7--7---
-7-r-6-r-5-r-4-r-------5---

order
intro
intro2
verse
bridge thingy
verse
chorus
solo
bridge thingy
verse
chorus
breakdown
solo chorus
solo
intro
  development and support by
dmitry ivanov