rock
 
|tablatures   |lyrics   |discussion forums   |more tabs @ XGuitar.com

Nirvana tabs

Polly (MTV Unplugged in N.Y.) guitar tab

Song: Polly
Artist: Nirvana
Album: Unplugged
Tuning: Half Step Down.
Tabbed by Addi.

I will eat my shorts if you don_t think this is 100% correct.

Intro & first verse.

eb---------------------------------------I
Bb---------------------------------------I
Gb------------4-------7-------5--5-5-----I
Db-2---2---5--5----7-----7----5--5-5-----I
Ab-2---2---5--5----5----------3--3-3-----I
Eb-0---0---3--3--0-----------------------I
  pm  pm  pm    pm

Chorus:

eb------------------------------I
Bb------------------------------I
Gb-7-----5--5-5---4-----7--7-7--I
Db-7-----5--5-5---5-----8--8-8--I
Ab-5-----3--3-3---5-----8--8-8--I
Eb-5-----3--3-3---3-----6--6-6--I

Second verse, strummed lightly:

eb--------------------------3----------------------------------------------I
Bb----------------------------5-----------------------7--7---7------5------I
Gb---------------------7--------5---------------------7--7---7----5---5----I
Db-2---2---5--5---5--7---7----------2---2---5--5---5--7--7---7--5----------I
Ab-2---2---5--5---5--5--------------2---2---5--5---5--5--5---5--3----------I
Eb-0---0---3--3---3-----------------0---0---3--3---3-----------------------I

Interlude (bass guitar):

eb-----------------------------------I
Bb-----------------------------------I
Gb-----------------------------------I
Db-----------------------------------I
Ab-------------------5--5---3--3--3--I
Eb-0---0---3--3---3------------------I

Third verse: Same as 1st, except strummed lightlier and no palm mutes.

Song ending:

eb----I
Bb----I
Gb----I
Db-2--I
Ab-2--I
Eb-0--I
  development and support by
dmitry ivanov