rock
 
|tablatures   |lyrics   |discussion forums   |more tabs @ XGuitar.com

Pink Floyd tabs

What Do You Want From Me guitar tab

Transcription by:  Keith Dillon (bdcjk@email.msn.com)



WHAT DO YOU WANT FROM ME?

Pink Floyd

(Gilmour, Samson)





INTRO (w/wah)

-----------------|----10--10----3---|-3h5-3-----------|---------------|

---------8-------|-10h12--10--3h5---|---3-----5-----5-|--3-5------14--|

---------7-------|----------12----4-|---------4-----4-|--4-4------14--|

---------9-------|------------------|-----------5-2-5-|----5------12--|

--7--------------|------------------|-----------------|---------------|

--0--------------|------------------|-----------------|---------12----|

							      (wah off)

-----------10----|-----------(7)----|------7----------|---------------|

--14-12----12----|--------(0)-8---5-|------8-------15-|------15--8--5-|

--12-------12----|------------9---6-|------9-9--14h15-|---15p14--7--4-|

--12-------14----|------------9---5-|-----------------|-14-----14---5-|

-----------------|------------------|----7------------|------------7--|

-----------------|--------------7---|-----------------|---------------|



gtr.1 (w/dist.)

-----------------------|----------------------|-----------------------------|

-15b(17)(17)---(17)(17)|(17)\-----------12-15-|-15b(17)-rp12----------------|

-----------------------|---------14b(16)------|-------------14b(16)r-12-----|

-----------------------|----------------------|------------------------14-12|

-----------------------|----------------------|-----------------------------|

-----------------------|----------------------|-----------------------------|

gtr.2 (clean)	       |		      |				    

-----------------------|----------------------|

-----------------------|----------------3-----|

--------0---------0----|-------0-----------0--| play 7 times

--------------------2--|--------------2-------|

----(2)---(2)---2------|----2----2--3---------|

--0-----------0--------|--0-------------------|



--------------------------|----------------------------------------------|

---------x----15------15--|-----15-----15-----15-----15-15----15-----15--|

---------x14b(16)-14b(16)-|-14b(16)14b(16)14b(16)14b(16)1414b(16)14b(16)-|

-14-\(5)------------------|----------------------------------------------|

--------------------------|----------------------------------------------|

--------------------------|----------------------------------------------|



								    as you

----------------12-------------------|------------------------|----------|

--------------12--15p12--------------|------------------------|----------|

-14p12--14b(16)--------14b(16)rp12---|-------14b(16)12-14--12b|(13)------|

------14--------------------------14-|14\(2)-------------14---|----------|

-------------------------------------|------------------------|----------|

-------------------------------------|------------------------|-----/12\-|



look around this room tonight			          settle in your 

--------------------|---------|--------------------|----|----------------|

--------------------|---------|--------------------|----|----------------|

--------------------|---------|-2b(4)rp0-2-0-------|----|-0-0-0-2p0------|

--------------------|---------|--------------2p0h2-|----|-2-2------------|

--------------------|---------|--------------------|-2--|----------------|

--------------------|---------|--------------------|----|----------------|



seat and dim the lights

------12---------------|---------------------------|-----------x-xxxxxx--|

--15b(17)--------------|-----15--15----15----15----|-----------x-xxxxxx--|

-----------------------|-14b(16)-14-14(16)(16)r-12-|---------------------|

-----------------------|---------------------------|-14--\(12)-----------|

-----------------------|---------------------------|---------------------|

-----------------------|---------------------------|---------------------|



do you want my blood?            do you want my tears what do you want

-------------------|-------------|------------------|----------------|

-------------------|-------------|------------------|----------------|

------2--2-x-2-----|-------------|------------------|----------------|

-2--2-2--2-x-2-----|-------------|-2----------------|-2--------------|

-0--0-0--0-x-0---0-|-0-----0-----|-0----------------|-0----------7\--|

-------------------|---------3---|--------------0-0-|----------------|



---------------------------|----------12-------12-----|

-x-------------------------|------15b(17)(17)-(17)p15-|

--2b(4)2b(4)-2(4)p2-2p0----|--------------------------|

-----------------------2p0-|-2---x--------------------|

---------------------------|--------------------------|

---------------------------|--------------------------|

				  should I sing until I can't sing anymore

---------------------------|-------------|------------------|-------------|

---------------------------|-------------|------------------|-------------|

-14b(16)rp12-14b(16)r-12---|-------------|------------------|-------------|

------------------------14-|-------------|--2-----------x---|-2-----------|

---------------------------|-------------|--0---------0-x-0-|-0------0----|

---------------------------|--------12\--|------------------|-------------|



play the strings till my fingers are raw		      

------------------------|---------------|---------|-xxxx--------|

------------------------|---------------|---------|-xxxx-4------|

------------------------|---------------|---------|-xxxx-4------|

------------------------|---------------|---------|-----(4)-----|

------------------------|---------------|---------|-------------|

------------------------|---------------|-2-------|-------------|



        I'm not the one you need

-----------|-------------------|-----------|--------12-15p12---------------|

-----------|-------------------|-----------|-15b(17)--------15b(17)15b(17)-|

-2---------|--2---------4------|--5----5/--|-------------------------------|

-4----6----|--2---------4------|--5--------|-------------------------------|

-4----6----|--0---------2------|--3--------|-------------------------------|

-2----4----|-------------------|-----------|-------------------------------|



what do you want from me?

-------------------------|

-------------------------|

-------------------------|

-------------------------|

-------------------------|

-----12\-----------------|
  development and support by
dmitry ivanov