rock
 
|tablatures   |lyrics   |discussion forums   |more tabs @ XGuitar.com

Rolling Stones tabs

Start Me Up bass tab

-----------------------------------------------------------------
Start Me Up - 1981 - Tattoo You - The Rolling Stones
-----------------------------------------------------------------
Tabbed by: Alex
Email: laughing_hippie@yahoo.com

Tuning: Standard
Intro:
G|--------------------------------------------------|
D|-----------------------3--------------------------|
A|--1-3------1-3-----1-3-----1-3-1-1-3-1------------|
E|------1-1------1-1--------------------------------|
The Rest:
G|--3-3-3-------------------------------------------|
D|--------5-3---------------------------------------|
A|------------1-1-1---------------------------------|
E|-------------------3-1----------------------------|
("You make a grown...)
G|--------------------------------------------------|
D|--------------------------------------------------|
A|--1-0-1-2-3-3-3-3--5-5\8-8-8-8-8-0-1-2-3-5-8\10-8-|
E|--------------------------------------------------|

G|--------------------------------------------------|
D|--------------------------------------------------|
A|--3-3-------3-3-------3-3-------3-3---------------|
E|------5-3-5-----5-3-5-----5-3-5-----5-3-5---------|
("Run...)
G|--------------------------------------------------|
D|------0-0-1-1-2-2-3-------------------------------|
A|--3-3---------------------------------------------|
E|--------------------1-1---------------------------|

| \ slide down
  development and support by
dmitry ivanov