rock
 
|tablatures   |lyrics   |discussion forums   |more tabs @ XGuitar.com

U2 tabs

False Profit guitar tab

=============
False Prophet
=============

Transcribed by Richard Averill.
E-mail me at nigelolympus@tinet.ie

-----
Notes
-----

This is a very obscure, early 1978 demo which I transcribed
from a grainy WAV file got from one of the U2 sites. I know
it's pretty unlikely that anybody will even look at this, let alone try
and play it, so I've only done the intro.

-----
Intro
-----

1|-----0---0-------0---0-------0---|---0---0-------0---0-------0---|
2|-------------------------0-------|-------------------------------|
3|-9-----------9-------------------8-----------8-----------8-------|
4|---------------------------------|-------------------------------|
5|---------------------------------|-------------------------------|
6|---------------------------------|-------------------------------|
   1   +   2   +   3   +   4   +   1   +   2   +   3   +   4   +

                                                          (Bass enters.)
1|-----0---0-------0---0-------0---|-------0-------0---0-------0---|
2|---------------------------------|---0---------------------------|
3|-12----------12----------12------11----------11----------11------|
4|---------------------------------|-------------------------------|
5|---------------------------------|-------------------------------|
6|---------------------------------|-------------------------------|
   1   +   2   +   3   +   4   +   1   +   2   +   3   +   4   +

1|-----0---0---0---0---0-------0---|---0---0-------0---0-------0---|
2|-------------------------0-------|-------------------------------|
3|-9-------------------------------8-----------8-----------8-------|
4|---------------------------------|-------------------------------|
5|---------------------------------|-------------------------------|
6|---------------------------------|-------------------------------|
   1   +   2   +   3   +   4   +   1   +   2   +   3   +   4   +

1|---------0-----------0-------0---|-------10------10--10------10--|
2|-----0-----------0---------------|---0-------0-------------------|
3|-12----------12----------12------11----------------------11------|
4|---------------------------------|-------------------------------|
5|---------------------------------|-------------------------------|
6|---------------------------------|-------------------------------|
   1   +   2   +   3   +   4   +   1   +   2   +   3   +   4   +

  (Drums enter.)
1|-----0---0-------0---0---0---0---|-------0-----------0-------0---|
2|---------------------------------|---0-----------0---------------|
3|-9-----------9-------------------8-----------8-----------8-------|
4|---------------------------------|-------------------------------|
5|---------------------------------|-------------------------------|
6|---------------------------------|-------------------------------|
   1   +   2   +   3   +   4   +   1   +   2   +   3   +   4   +

1|---------0-------0---0-------0---|-------10------x---x---x---x---|
2|-----0---------------------------|---0-----------x---x---x---x---|
3|-12----------12----------12------11----------11--x---x---x---x---|
4|---------------------------------|-------------------------------|
5|---------------------------------|-------------------------------|
6|---------------------------------|-------------------------------|
   1   +   2   +   3   +   4   +   1   +   2   +   3   +   4   +

1|-0-------0---0---0---0---0---0---0---0---0---0---0---0---0---0---|
2|-0---0---0---0---0---0---0---0---0---0---0---0---0---0---0---0---|
3|-9---9---9---9---9---9---9---9---9---9---9---9---9---9---9---9---|
4|---------------------------------|-------------------------------|
5|---------------------------------|-------------------------------|
6|---------------------------------|-------------------------------|
   1   +   2   +   3   +   4   +   1   +   2   +   3   +   4   +

If anybody really wants I'll tab the rest of the song. For the
moment I'm just don't see the point.
  development and support by
dmitry ivanov